Oops, an error
Loading. Please wait.

En El Nombre De Jesús Bass Tab

23 views 1 this week
no commentswrite comment
1 2 3 4 5
3 more votes to show rating
add to favorites
launch autoscroll
font size
0
reset
guitar tuner
Autoscroll
slow
fast
+/-
esc
set tempo
stop
Help us to improve Ultimate-Guitar.com Take our survey!
×
*****INTRO
       (esperas que la guitarra comienze hasta que sea tu turno, sería bueno
     que utilizes un efecto con eco, para que suene como en la canción original)
G|--------------------------------------------------||
D|-------------------------------------------2/4----||
A|---------2-4--4----------2-2-2---4-4-4---4--------||
E|---2-4-5----------0--0----------------------------||


*****VERSO 1
    Él nos llamado a conquistar las naciones.....
G|--------------------------------------------||
D|--------------------------------------------||
A|-444444-------0-2220222--444444-4-5-4-5-345-||
E|--------000000------------------------------||

    Alzando manos santas....
G|--------------------------------------||
D|--------------------------------------||
A|-444444-------0-2220222--444444-4-----||
E|--------000000------------------------||


*****INTERMEDIO
G|-------------------------------------||
D|-------2222222-----------------------||
A|-444444-------0-2220222--444444-2-4--||
E|-------------------------------------||


*****VERSO 2
    Él nos llamado a hechar fuera demonios.....
G|--------------------------------------------||
D|--------------------------------------------||
A|-444444-------0-2220222--444444-4-5-4-5-345-||
E|--------000000------------------------------||

    Confiando en sus promesas.....
G|--------------------------------------||
D|--------------------------------------||
A|-444444-------0-2220222--444444-4-----||
E|--------000000------------------------||


*****CORO
   Porque no hay otro nombre....
G|------------------------------------------||
D|------------------------------------------||
A|--0--0-2-222--4-4244--44-2--0--0-2-4/16/4-||
E|------------------------------------------||

   Porque no hay otro Dios.....
G|---------------------------------||
D|---------------------------------||
A|--0--0-2-222--4-4244--44-2--0-2--||
E|---------------------------------||


*****INTERMEDIO
G|-------------------------------------||
D|-------2222222-----------------------||
A|-444444-------0-2220222--444444-2-4--||
E|-------------------------------------||


*****VERSO 3
   Él nos ha llamado a doblar las rodillas...
G|--------------------------------------------||
D|--------------------------------------------||
A|-444444-------0-2220222--444444-4-5-4-5-345-||
E|--------000000------------------------------||

   Confiando en sus promesas.....
G|--------------------------------------||
D|--------------------------------------||
A|-444444-------0-2220222--444444-43-1--||
E|--------000000------------------------||


*****CORO


*****SOLO DE BAJO

G|---------------------------------------------------------------------||
D|--------2-------------------2------4/2/4----------2------------------||    X 4
A|--2/4-44--4-44--2/4-4-2/4-44---4-44--------2/4-44---4-4444-------4---||
E|-----------------------------------------------------------00-22-----||


  CORO
   Porque no hay otro nombre....
G|------------------------------------------||
D|-----------------------------------6/18/6-||
A|--0--0-2-222--44-244-44-2-0-02-2---4/16/4-||
E|------------------------------------------||

   Porque no hay otro Dios.....
G|----------------------------------------------||
D|----------------------------------------------||
A|--0--0-2-222--4-4244--44-2--0-2----4-4-4-4--2-||
E|----------------------------------------------||

   Porque no hay otro nombre....
G|------------------------------------------||
D|-----------------------------------6/18/6-||
A|--0--0-2-222--4-4244--44-2--0--0-2-4/16/4-||
E|------------------------------------------||

   Porque no hay otro Dios.....
G|-----------------------------------||
D|-----------------------------------||
A|--0--0-2-222--44-244-44-2-0-02-2---||
E|-----------------------------------||

   Que sea libertador.....que sea libertador...........
G|------------------------------------------------------------|
D|------------------------6/18/6------------------------------|
A|--44-4464-4424---0--0-2-4/16/4-----44-4464-4424---0-12-3-4--|
E|------------------------------------------------------------|

NOTA: ojo cuando toquen los coros finales porque tienen variaciones
al final, por eso los puse varias veces, ojo con eso!!! jejeje.


Bueno eso es todo amigos, espero que la disfruten, en realidad es muy facil
esta cancion,quizás tenga unas pocas notas que no estén en el tiempo correcto,
pero sé que se las arreglarán, ya que deben de ponerle un poquito de dedicación
y la sacarán igual a la del cd...Dios los bendiga.....y finalmente, esta canción
va dedicada kathy...te amo mi bebe....
Suggest correction
Give kudos to tab author, rate the tab!
1 2 3 4 5
comments
print report bad tab
guest
You may want to rate the tab now too:
select rating
Wanna post a correction for this tab? Suggest correction