Oops, an error
Loading. Please wait.

Escrito Está Chords

26 views 1 this week
no commentswrite comment
1 2 3 4 5
3 more votes to show rating
add to favorites
×
Save as Personal and add changes to this tab that will be seen only by you. Learn more ›
×
You can save this tab as Personal to edit and correct it or add notes. All changes will be seen only by you. Learn more »
save as personal
new!
launch autoscroll
font size
0
reset
transpose
0
reset
simplify chords
display chords
guitar tuner
Autoscroll
slow
fast
+/-
esc
set tempo
stop
Strumming
There is no strumming pattern for this song yet. and get +5 IQ
Notas:
Los acordes de la intro y de las estrofas
cambian un poco de esta forma:

    F#m   E     Dd     C#
E:--x--|--x--|--x--|--x--|--
B:--x--|--x--|--7--|--6--|--
G:--11-|--9--|--6--|--6--|--
D:--11-|--9--|--4--|--4--|--
A:--9--|--7--|--5--|--4--|--
E:--9--|--9--|--x--|--x--|--

la d minúscula indica la variación "delta" del acorde
esto es el acorde mayor con el 7mo grado natural

Solo del inicio:

HO:Hammer On // P:Pull off
E:-------------------------------------------
B:-----------9-10-12-10-9-9HO-11P-9--------
G:-11------11--------------------------11-10-
D:-------------------------------------------
A:-------------------------------------------
E:-------------------------------------------

                              slide
E:-------------------------------------------
B:-----------9-10-12-10-9----12/14-----------
G:-11------11-------------11-----------------
D:-------------------------------------------
A:-------------------------------------------
E:-------------------------------------------

Las flechas en los acordes indican un pequeño slide al acorde
siguiente... Si parece complicado es bueno que escuches las canción
original para guiarte

Intro:
F#m E->F#m Dd C#


F#m       E
   Ya veo  lo que es
Dd             C#
   Perder la fe por una trampa
F#m       E
   Solo un descuido
Dd             C#
   Y yo me encuentro atrapado
F#m         E
   El como león rugiendo está
Dd             C#
   Acusándonos mi hermano
F#m       E                Dd          C#
   Pero escrito esta, que tu serás juzgado

Coro
F#m      D       E     A   E/G#
No, no,  no ganarás....no.....
F#m      D          E      A   E/G#
No, falta aún el encuentro final
F#m            D           E         F#m
Cristo te derroto te venció en la cruz

Repite Intro con el Solo

F#m       E
   Desde la antigüedad
Dd             C#
   Tu, nos vienes tentando

F#m       E
   Fuiste un ángel de luz
Dd             C#
   Y hoy eres inhumano

F#m          E
   Te vistes tu de amor
Dd             C#
   Nos llevas al fracaso

F#m         E         Dd             C#
   Pero escrito esta, que tu serás juzgado

Coro:......

Para la parte del solo cada acorde se demora un compás
excepto las del paréntesis:

F#m E D (C# C#->D C#->D C#->D)

Estas notas se hacen con el estilo del Rock pesado, es decir
que solo se hace en las tres cuerdas más bajas de la guitarra (D,A,E)

Coro:....

Esta canción necesita una buena práctica...

:).... Les debo el solo... en un poco complicado escribirlo
en ASCCI por que no se pueden definir los tiempos...
Un saludo a todos los que pidieron esta canción
Cualquier duda escribanme al correo
Dios les Bendiga
Suggest correction
Give kudos to tab author, rate the tab!
1 2 3 4 5
comments
print report bad tab
guest
Wanna post a correction for this tab? Suggest correction