Oops, an error
Loading. Please wait.

Viviendo Está En Mi Corazón Chords

14 views 1 this week
no commentswrite comment
1 2 3 4 5
3 more votes to show rating
add to favorites
launch autoscroll
font size
0
reset
transpose
0
reset
display chords
guitar tuner
Autoscroll
slow
fast
+/-
esc
set tempo
stop
Strumming
There is no strumming pattern for this song yet. and get +5 IQ
Intro
E|----------------------------------|
B|----------------------------------|
G|--------0-----0-------0-----0-----|
D|------0-----0-------0-----0-----0-|
A|0-2-3-----2-----2-3-----2-----2---|
E|----------------------------------|

E|----------------------------------|
B|----------------------------------|
G|5/7-7-5-5-4-4---------------------|
D|--------------7-7-5-5-4-4---------|
A|--------------------------5-3-2-3-|
E|----------------------------------|

G                     C    D       Em
  Hubo un hombre a quién Dios envió
           C     D      G
  para salvar a las naciones
            C    D
  para los suyos bajó
   Em        C    D
  mas no le recibieron.
G                C  D     Em
  Y aquel Verbo se hizo carne
         C     D     G
  y habitó entre nosotros
             C       D    Em
  vimos su gloria y su poder
             C    D
  resplandeció aquí

Coro
G             C   D        Em
  Viviendo está en mi corazón
              C   D          G
  viviendo está en mi interior
                  C   D
  y aunque han pasado años
   Em              C  D
  sigue siendo el Veeeerbo hoy

En esta parte en la palabra 'HOY' vuelves al intro
E|----------------------------------|
B|----------------------------------|
G|----0-----0-------0-----0---------|
D|--0-----0-------0-----0-----0-----|
A|3-----2-----2-3-----2-----2-------|
E|----------------------------------|

E|----------------------------------|
B|----------------------------------|
G|5/7-7-5-5-4-4---------------------|
D|--------------7-7-5-5-4-4---------|
A|--------------------------5-3-2-3-|
E|----------------------------------|

Las notas se repiten para esta segunda parte

  Mas la ley llegó por Moises
  mas el amor por mi Señor
  nos fue quitada la ceguera
  cuando apareció.

  He aquí el Cordero de Dios
  que ha quitado todos tus pecados
  y desde el cielo fuego
  sobre El resplandeció

Coro

  Viviendo está...

Esta es mi primera colaboración espero que les guste que es 
una muy buena canción que Dios les bendiga siempre
Suggest correction
Give kudos to tab author, rate the tab!
1 2 3 4 5
comments
print report bad tab
guest
Wanna post a correction for this tab? Suggest correction