Oops, an error
Loading. Please wait.

Guardián De Fuego Tab

29 views 1 this week
no commentswrite comment
1 2 3 4 5
3 more votes to show rating
add to favorites
launch autoscroll
font size
0
reset
how to read this tab
guitar tuner
Autoscroll
slow
fast
+/-
esc
set tempo
stop
Help us to improve Ultimate-Guitar.com Take our survey!
×
bueno una tab mas jeje, ahora les dejo esta excelentisima cancion,
una de mis bandas favoritas y bueno a cantar a todo pulmon
para alabar a Dios!!!!...
dudas, sugerencias. toy_pegasus-fantasy@

¡¡¡Dios los bendiga a todos !!!

SACROM
VICTORIA ETERNA (2003)
GUARDIAN DE FUEGO

Intro:
         C5
e|----------------------------------------------------------------
B|------7--------5-3---------7--------5-3-------------------------
G|------4-4-4-4--4-4-4-4-4---4-4-4-4--4-4-4-4-4-------------------
D|----------------------------------------------------------------
A|----------------------------------------------------------------
E|----------------------------------------------------------------

 A5                                            = Riff =
---------------------------------------------|--7--9--7--9--10-12 12/14-|
---------------------------------------------|--------------------------|
---9--------7-6--------9-------7-6-- 4 veces |--------------------------|
---7-7-7-7--7-7-7-7-7--7-7-7-7-7-7-----------|--------------------------|
---------------------------------------------|--------------------------|
---------------------------------------------|--------------------------|

  =Riff2=
e|--------|
B|--------|
G|--9//---|
D|--9//---|
A|--------|
E|--------|


C5
Guardián de fuego,
Rey de mi vida,
A5
Ven lléname
Con tu gran poder
G5             E5                    F#5
Dame tu espada que quiero vencer al dragón

C5
Hijo de luz
Ven brilla en mi
A5
Toma mi mente y así venceré
G5           E5              F#5
Hoy guardare mi corazón solo para ti

Em5                               C5
Tu sangre en la cruz la diste por mí
A5                                               C5
Tu alma guerrera lucho sin descanso para hacerme vivir
= Riff =
Es por ti que vivo, nunca temeré


C5   G5        A5     C5
Hoy? habrá? un nuevo? amanecer
C5     G5        A5       =riff2=   F#5
Aunque no estés a mi lado no te olvidare

C5    A5  C5      D5   A5    C5
¡Ven? ce? ré...! ¡Es... pe... rare...!
C5               G5            F#5
Sé que algún día a tu lado yo estaré

C5    A5  C5      D5   A5    C5
¡Ven? ce? ré...! ¡Es... pe... rare...!
C5     G5        A5       =riff2=   F#5
Dame tu espada y tu fuerza para vencer

INTRO.

BASE DE LA GUITARRA EN SOLO DE PIANO ---- C5   A5  X 4 VECES,

SOLO DE GUITARRA

e|----10h7-------10h7------10h7---|--10h7------10h7------10h7------|-----
B|---------7-7--------7-7-------7-|-------8-8-------8-8--------8---|-----
G|--------------------------------|--------------------------------|-----

--|---10h7------10h7------10h7-----|--12h9--------12h9--------12h9-----|-
--|--------9-9-------9-9-------9---|-------10-10-------10-10-------10--|-
--|--------------------------------|-----------------------------------|-

-----|----12h9----------12h9---------12h9--------|--13h10-----13h10------
-----|---------11-11----------11-11---------11---|--------12---------12--
-----|-------------------------------------------|-----------------------

--15h12-----15h12------|---17h14------15h12-----13h10------15h12---------
--------14--------14---|---------16--------14---------12---------14------
-------------------------------------------------------------------------

---13h10-------12h9---------------------|---7--9--7--9-10--12-12/14---12|
---------12----------11-----9/10-11-----|-------------------------------|
----------------------------------------|-------------------------------|

Em5                               C5
Tu sangre en la cruz la diste por mí
A5                                               C5
Tu alma guerrera lucho sin descanso para hacerme vivir
= Riff =
Es por ti que vivo, nunca temeré

C5   G5        A5     C5
Hoy? habrá? un nuevo? amanecer
C5     G5        A5       =riff2=   F#5
Aunque no estés a mi lado no te olvidare

C5    A5  C5      D5   A5    C5
¡Ven? ce? ré...! ¡Es... pe... rare...!
C5               G5            F#5
Sé que algún día a tu lado yo estaré


C5    A5  C5      D5   A5    C5
¡Ven? ce? ré...! ¡Es... pe... rare...!
C5     G5        A5       =riff2=   F#5
Dame tu espada y tu fuerza para vencer

OUTRO:

         C5
e|----------------------------------------------------------------
B|------7--------5-3---------7--------5-3-------------------------
G|------4-4-4-4--4-4-4-4-4---4-4-4-4--4-4-4-4-4-------------------
D|----------------------------------------------------------------
A|----------------------------------------------------------------
E|----------------------------------------------------------------

 A5                                            = Riff =
-------------------------------------------|--7--9--7--9--10-12-12/14-12|
-------------------------------------------|----------------------------|
-9--------7-6--------9-------7-6---2 veces-|----------------------------|
-7-7-7-7--7-7-7-7-7--7-7-7-7-7-7-----------|----------------------------|
-------------------------------------------|----------------------------|
-------------------------------------------|----------------------------|
Suggest correction
Give kudos to tab author, rate the tab!
1 2 3 4 5
comments
print report bad tab
guest
You may want to rate the tab now too:
select rating
Wanna post a correction for this tab? Suggest correction