Oops, an error
Loading. Please wait.

El Célibe Tab

2 views 1 this week
no commentswrite comment
1 2 3 4 5
3 more votes to show rating
add to favorites
launch autoscroll
font size
0
reset
how to read this tab
guitar tuner
Autoscroll
slow
fast
+/-
esc
set tempo
stop
Help us to improve Ultimate-Guitar.com Take our survey!
×
Intro

1|-----------------------------------|
2|-----------------------------------|
3|-----------------------------------|
4|---------2-----4-----6----------2--| x4
5|-----------------------------------|
6|-0---0-3---3/5---5/7---7--3-2-0----|


Una vez me puse a ver

    A5
1|-----------------------------|
2|-----------------------------|
3|---------------------------5-|
4|-(7)-5-7-5-7---(7)-5-7-5-7-5-| (acompaña)
5|-(7)-5-7-5-7---(7)-5-7-5-7---|
6|-----------------------------|

cómo era no querer

1|-----------------------------------|
2|-----------------------------------|
3|-----------------------------------|
4|---------2-----4-----6----------2--| (acompaña)
5|-----------------------------------|
6|-0---0-3---3/5---5/7---7--3-2-0----|


esas pieles en mis manos
esos pubis tan insanos.


Ser puros para llegar,
los deseos dominar

1|------------------------|
2|-(2)---(3)---(4)---(5)--|
3|-(2)---(2)---(2)---(2)--| x2
4|------------------------|
5|------------------------|
6|------------------------|


1|-----------------------------------|
2|-----------------------------------|
3|-----------------------------------|
4|---------2-----4-----6----------2--| x2
5|-----------------------------------|
6|-0---0-3---3/5---5/7---7--3-2-0----|


(coitus interruptus...)


B5                       A5
Despertar, flagelar, contener...
B5                       G5      C#5- C5
meditar, concentrar, detener...
B5                        C5
simular, no tocar, no querer...
(silencio)
¡...y ahora soy célibe!


************

Repite todo de nuevo.


FIN.
Suggest correction
Give kudos to tab author, rate the tab!
1 2 3 4 5
comments
print report bad tab
guest
You may want to rate the tab now too:
select rating
Wanna post a correction for this tab? Suggest correction