Oops, an error
Loading. Please wait.

Otro Día Más Sin Tí Tab

by Sahiro
22 views 1 this week
no commentswrite comment
1 2 3 4 5
3 more votes to show rating
add to favorites
launch autoscroll
font size
0
reset
how to read this tab
guitar tuner
×
Best way to learn
"Otro Día Más Sin Tí"
Autoscroll
slow
fast
+/-
esc
set tempo
stop
tablatura del solo


e |--------------7--10-7-10h12-10-9-10-10-10-10-8-7-8-8-10-8-7-----|
B |-8-8-8-7-8-10-----------------------------------------------10--|
G |----------------------------------------------------------------|
D |----------------------------------------------------------------|
A |----------------------------------------------------------------|
E |----------------------------------------------------------------|

e |---------------------
B |--------7--8-8-7-8-10
G |7-9-7-9---------------
D |---------------------
A |---------------------
E |---------------------

e-7--10-7-10h12-10-9-10-10-10-10-8-7-8-8-10-8-7-----|
B-----------------------------------------------10--|
G---------------------------------------------------|
D---------------------------------------------------|
A---------------------------------------------------|
E---------------------------------------------------|
Suggest correction
Give kudos to tab author, rate the tab!
1 2 3 4 5
comments
print report bad tab
guest
You may want to rate the tab now too:
select rating
Wanna post a correction for this tab? Suggest correction