Oops, an error
Loading. Please wait.

Kuervo Mío Tab

11 views 1 this week
no commentswrite comment
1 2 3 4 5
3 more votes to show rating
add to favorites
launch autoscroll
font size
0
reset
how to read this tab
guitar tuner
×
Best way to learn
"Kuervo Mío"
Autoscroll
slow
fast
+/-
esc
set tempo
stop
la corregi solo necesitaba unos arreglos
revisen sus videos son 100% correctos algo para LA CUERDA de mi parte
saludos y viva el rock libre ecuatoriano.....
num 1: José Carlos Fuertes
----------------------------------------------------------------

e--------1-0---------------1-0------------3-0------------3-0-------
B------3-----3---3-------3-----3--------6-----6--------6-----6-----
G----0---------0---0---0---------0----5---------5----5---------5--- Intro
D------------------------------------------------------------------    x1
A--2-----------------1--------------4--------------5---------------
E------------------------------------------------------------------

 Kuervo mio
Hoy te kambiaran el korazón por una bala de kañon
(hasta aqui se repite lo del intro);

ahora rasgando desde la cuarta estos acordes A y B la E y A
van sueltas
       A        E
e---5----7----7----11---
B---5----5----7----7----
G---6----6----8----8----
D---7----7----9----9----
A-----------------------
E-----------------------
Hoy apagaran tus ojos

    F#              F
e---2-------------------5--
B---2------------------1---
G---3-----------------2----
D---4----------------3-----
A---4---------------3------
E---2--------------1-------
 y te obligaran a volar

( se repite el INTRO)
e--------1-0---------------1-0------------3-0------------3-0-------
B------3-----3---3-------3-----3--------6-----6--------6-----6-----
G----0---------0---0---0---------0----5---------5----5---------5--- Intro
D------------------------------------------------------------------    x1
A--2-----------------1--------------4--------------5---------------
E------------------------------------------------------------------

Ciego sobre los despojos de tu libertad
Kuervo mio
(AQUI entra un la A) asi:
e--------1-0-----------1-0------------------
B------3-----3-------3-----3----------0-----
G----0---------0---0---------0--2---2---2---
D---------------------------------2-------2-
A--2-------------1--------------0-----------
E-------------------------------------------
Kuervo amado                  kuando suene el reloj
(aki entra la distorcion) vas jugando algo asi
con los acordes F# G Esus4
e---2--0---3--0-
B---2--0---3--0-
G---3--3---4--4-
D---4--4---5--5-
A---4--4---5--5-
E---2--2---3--3-
     F#      G

Te konvertirán en pájaro dekapitado
Y te encerraran en este horrible
e---0---------2--
B---3---------2--
G---0---------3--
D---4---------4--
A---2---------4--
E---0---------2--
  Esus4       F#

Kampo de koncentracion x3

aki se repite el intro...

Kuervooo ya son las 6, ya es hora de ir a la escuela,
es hora de convertirse en desgraciado

FIN...
espero les sirva de parte de Jocarco
Suggest correction
Give kudos to tab author, rate the tab!
1 2 3 4 5
comments
print report bad tab
guest
You may want to rate the tab now too:
select rating
Wanna post a correction for this tab? Suggest correction