Oops, an error
Loading. Please wait.

Estás Tab

94 views 1 this week
no commentswrite comment
1 2 3 4 5
3 more votes to show rating
add to favorites
×
Save as Personal and add changes to this tab that will be seen only by you. Learn more ›
×
You can save this tab as Personal to edit and correct it or add notes. All changes will be seen only by you. Learn more »
save as personal
new!
launch autoscroll
font size
0
reset
how to read this tab
guitar tuner
Autoscroll
slow
fast
+/-
esc
set tempo
stop
Intro: A  F#
e---------------------------------
B--------------7A-----5A--------------
G---------7A-------------------------
D-----------------------------------
A-----------------------------------
E----------------------------------

A              F#
No se como ni la forma comencé a sentirme extraño
no se cuando ni la hora comenzaste a cambiarme
desde entonces guardo algo es importante...
B
Es que estás
F#
rondando en mi cabeza
A
siempre me haces dar mas vueltas y no puedo creer
B          F#
que estás robando mis ideas
  A
siempre llegas y me besas y todo comienza a terminar.

En Coro y en solo repite esto:

e---------------------------------------------
B---------------------------------------------
G--4-4--7-7-6-6-----14-13-11--9-9-------------
D---------------------------------------------
A--2-2--5-5-4-4-----12-11--9--7-7-------------
E---------------------------------------------

Repite el intro

No se cuando sera el día en q te encuentre y cambiar algo
pero es tarde, sé que es tarde
hace tiempo que tú estás...

rondando en mi cabeza
siempre me haces dar mas vueltas
y no puedo creer
que estás robando mis ideas
siempre llegas y me besas y todo comienza a terminar.

Solo de guitarra:

e---------------------------------------------
B--12h14-7s12---12-12h14--7s12--------------------------------------
G---------------------------------------------
D---------------------------------------------
A---------------------------------------------
E---------------------------------------------


e-----------------------------------------------------------------
B--12-12s10s9s7s5h7s5----------------17---------------------------
G-------------------------------14 16b18p16h14----14--------------
D----------------------------16----------------16-----------------
A-----------------------------------------------------------------
E-----------------------------------------------------------------

e-----------17--19b21p19s17-------19s17---17s15------16s14-----14s12-----12--
B---17--19---------------------17--------15--------14--------12--------10----
G----------------------------------------------------------------------------
D----------------------------------------------------------------------------
A----------------------------------------------------------------------------
E----------------------------------------------------------------------------

Esto es lo que he sacado y no estoy 100% seguro pero ya da
Suggest correction
Give kudos to tab author, rate the tab!
1 2 3 4 5
comments
print report bad tab
guest
Wanna post a correction for this tab? Suggest correction