Oops, an error
Loading. Please wait.

Maldita Soledad Bass Tab

46 views 1 this week
no commentswrite comment
1 2 3 4 5
3 more votes to show rating
add to favorites
launch autoscroll
font size
0
reset
guitar tuner
×
Best way to learn
"Maldita Soledad"
Autoscroll
slow
fast
+/-
esc
set tempo
stop
Intro
G-----------------------------------------------------------
D-------22--------------------------------22----------------
A----3------3--0------3-00----0-------3-------3--0----32-0--
E-1--------------3-1-------------3-1----------------3------3

Main riffx2
G-----------------------------------------------------------
D------5-2-------------2--------5-2-------------------------
A----3------3--------3---2----3-----3------7-5--------------
E-----------------1---------------------5-------3-----------

G-----------------------------------------------------------
D----5-2---------2---------------------2--------------------
A--3-----3-----3----2---------2-3-5-------5-3-2-------------
E------------1-------------3--------------------------------

Verso x3
G---------------------
D------2-5------------
A---3------------7-5--
E-------------5-------

Riff
G---------------------
D---------------------
A----2-3----5-3-2-----
E--3------------------


G-------------------
D-------------------
A--5-5------3-------
E--------1----1----- x3

Pre coro
G-----------------------------------
D-----------------------------------
A--3--3-3----3--3-3-----------------
E--------------------3-3-3--3--3-3--

Corox2
G----------------------------------------------------------------------
D--------------2-5----------------2-5---------------------5-3-2--------
A----0-1----3------------0-1---3----------0-3------7------------5-3-2--
E--1------------------1-----------------1------5-8---------------------


G-----------------------------------------------------------
D------------2-5--------2-5---------------------------------
A----0-1---3--------0-1--------0-3------7-------2-3-5-3-2---
E--1--------------1----------1------5-8-------3-------------

G-----------------------
D-----------------------
A--333--2222--333-2222--
E-----------------------

Main riff

Verso

Pre-coro

La primera parte del coro pero lento

Corox1

G-------------------------------------
D-----------------------222-00--------
A-333-2222-333-2222-333--------3------
E-------------------------------------

G------------------------------------------------------------------
D-----5-2--------------------------2------5-2------------------2---
A--3------3------3-----3-------0-3-----3------3---3---3----0-3-----
E-------------1-----1------0-0------------------1---1---00---------

G-------------------------------------------
D-----5-2-----------------------------------
A---3-----3-----3-----3---------------------
E-------------1----1------0-0-0-0-----------

G--------------------------------------------------------
D--------22---------------------------22-----------------
A-----3-----3--0------3-00---0------3-----3-0---3-2-00---
E--1--------------3-1----------3-1------------3----------


Se la dedico a Ireri y a todos los skatos
de Qro
Suggest correction
Give kudos to tab author, rate the tab!
1 2 3 4 5
comments
print report bad tab
guest
You may want to rate the tab now too:
select rating
Wanna post a correction for this tab? Suggest correction