Oops, an error
Loading. Please wait.

Si Tu Boquita Fuera Tab

version 1
version 1

Whole song

Interactive

154 views 6 this week
no commentswrite comment
1 2 3 4 5
3 more votes to show rating
add to favorites
launch autoscroll
font size
0
reset
how to read this tab
guitar tuner
×
Best way to learn
"Si Tu Boquita Fuera"
Autoscroll
slow
fast
+/-
esc
set tempo
stop
Este es el Surf completo de Si tu bokita fuera de 
salon victoria espero les guste

Usen un poko de distor se olle loko

e -------------------------------------------------
B -------------------------------------------------
G --------------------------------2-------3-2-0----
D --0-0-2-0-3-0-4-0-5-5/7-0-0-0-3---0-0-0----------
A -------------------------------------------------
E -------------------------------------------------


e -------------------------------------------------
B -------------------------------------------------
G --------------------------------2-------3-2-0----
D --0-0-2-0-3-0-4-0-5-5/7-0-0-0-3---0-0-0----------
A -------------------------------------------------
E -------------------------------------------------


e -------------------------------------------------
B -------------------------------------------------
G ------------------------------------------------- 
D 15/14/13/12/11/10/9/8/7/6/5/4/3/2----------------
A -------------------------------------------------
E -------------------------------------------------


e ---------------------------------------------------------------------
B ---------------------------------------------------------------------
G --------------------------------2-------3-2-0------------------------
D --0-0-2-0-3-0-4-0-5-5/7-0-0-0-3---0-0-0-------22222---1111111-0--1---
A ---------------------------------------------------------------------
E ---------------------------------------------------------------------

un saludo pal shagi aka en xochimilko!!!
Paniko_911 and Selva!!
Suggest correction
Give kudos to tab author, rate the tab!
1 2 3 4 5
comments
print report bad tab
guest
You may want to rate the tab now too:
select rating
Wanna post a correction for this tab? Suggest correction