Oops, an error
Loading. Please wait.

Sol De Media Noche Bass

317 views 3 this week
no commentswrite comment
1 2 3 4 5
3 more votes to show rating
add to favorites
launch autoscroll
font size
0
reset
guitar tuner
×
Best way to learn
"Sol De Media Noche"
Autoscroll
slow
fast
+/-
esc
set tempo
stop
Ahi les va esta rolota q no queria compartir     dannygrowl_19@
xq m costo un poko d trabajo sakrla pro decidi     *(E=MI,A=LA,D=RE,G=SOL)
compartirla x q yo tambien la busq como loko.
Creada por el Irán ja ja
SOLO ESCUCHEN BN LA CANCION Y VAN A VER Q ESTA KSI PERFECTA.


Entran con esto un pokito después despues del acordion.
                                                                   x3
G -------------------------------------------------------------------
D ----4-7------4-7-----4-7-----4-7-----------------------------------
A --5--------5-------5-------5---------2-5-----2-5-----2-5-----2-5---
E -----------------------------------3-------3-------3-------3-------

G -------------------------------------------------------------------
D ----4-7-----4-7-----4-7-----4-7------------------------------------
A --5-------5-------5-------5---------4-7-----4-7-----4-7----4-7-----
E ----------------------------------5-------5-------5----------------

G --7-9-7-----------------------------7------------------------------
D -9-----9----------------------7-7-7---7----------------------------
A ---------------5-5--5-5--5--5-----------------------------------5--
E ----------3-------------------------------3-3--3-3--3--3--5-5-5---5

G -----------------------7-------------------------------------------
D -----------------7-7-7---7-----------------------------------4-7---
A --5-5--5-5--5--5-----------------------------------5--------5------
E -----------------------------3-3--3-3--3--3--5-5-5---5-------------

G -------------------------------------------------------------------
D ----4-7-----4-7-----4-7-------------------------------------4-7----
A --5-------5-------5---------2-5-----2-5-----2-5-----2-5---5--------
E --------------------------3-------3-------3-------3----------------
           Dile que estoy secoooOOoo........
G ------------------------------------------------------------7-9-7--
D ----4-7-----4-7-----4-7-----------------------------------9-------9
A --5-------5-------5---------4-7-----4-7-----4-7----4-7-------------
E --------------------------5-------5-------5------------------------
                                       Si la vez cantinero......
G -------------------------------7-----------*-----------------------
D -------------------------7-7-7---7---------*-----------------------
A -------5--5---5--5---5-5-------------------*5-0-5-0-5-0-5-0--------
E --3--------------------------------3-------*----------------3-0-3-0
           x5                                (Parte rapida)
G --------*---------------------------------*------------------------
D --------*---------------------------------*---------------4-7-4----
A -3-0-3-0*---5-0-5-0-5-0-5-0---------------*-----5-0-3-4-5----------
E --------*-------------------3-3-3-2-2-2-3-*------------------------

G -------------------------------------------------------------------
D ------------------------------4-7-4----------------------6-9---6-9-
A ------------2-5-2---5-0-3-4-5-------------------4-7-4--7-----7-----
E --3-0-1-2-3---------------------------5-0-3-4-5--------------------
                           x2            (Sin voz)
G --------------------------*----------------------------------------
D ---6-9--------------------*-----------------------4-5-6-7-5--------
A -7-----7-------------1-3-4*-----5-0-3-4-5-0-3-4-5------------------
E ---------0-3-0-1-3-4------*----------------------------------------
  "Sol de media noche"
G-------------------------------------------------------------------
D------------4-7-4-------------------------------4-7-4--------------
A--5-0-3-4-5-------------------2-5-2---5-0-3-4-5-------------------4
E --------------------3-0-1-2-3---------------------------5-0-3-4-5--
                                             x4
G -------------------------------------------*----------------------
D --------6-9---6-9---6-9--------------------*----------------------
A -7-4--7-----7-----7-----7-------------1-3-4*-5-5-5-5-5------------
E --------------------------0-3-0-1-3-4------*-----------7-7-7-7-7--

G -----------------------------------------------------------------*
D -----------------------------------------------------------------*
A -7-7-7-7-7-----------5-5-5-5-5-----------7-7-7-7-7---------5-----*
E -----------5-5-5-5-5-----------7-7-7-7-7-----------5-0-5-0-------*
   *Final)
G ------------------------------------------------------------------
D -----4-7-------4-7-------4-7-------4-7----------------------------
A -5-5-------5-5-------5-5-------5-5-----------2-5-------2-5------2-5
E -----------------------------------------3-3-------3-3-------3-3--
          x6                                                  FIN...
G --------*---------------------------------------------------------*
D --------*-------4-7-------4-7-------4-7-------4-7-----------------*
A -----2-5*---5-5-------5-5-------5-5-------5-5--------------------5*
E -3-3----*---------------------------------------------3-----5-----*

Comentrarios y dudas a mi correo dannygrowl_19@
****En la parte rapida ay un adorno cuando dice chino sak otra chela
krnal no lo puc para no tener que poner tanto por ese pequeño adorno
asi q les puc x las veces q sean pero es facil solo escuchenla y es
en la cuerda de RE=D y LA=A empieza el adorno en la cuerda d RE y es
en el traste 5 se desliza al 7 y d regreso al 5 subes a la cuerda de
LA al traste 7 y termina el adorno en el traste 5.
 "ES MI PRIMER TRABAJO AQUI ESPERO Y LES GUSTE"
 si quieren otra namas avisenme
Suggest correction
Give kudos to tab author, rate the tab!
1 2 3 4 5
comments
print report bad tab
guest
You may want to rate the tab now too:
select rating
Wanna post a correction for this tab? Suggest correction