Oops, an error
Loading. Please wait.

Tan Sólo Esta Cancion Bass Tab

version 1
version 1

Whole song

7 views 1 this week
no commentswrite comment
1 2 3 4 5
3 more votes to show rating
add to favorites
launch autoscroll
font size
0
reset
guitar tuner
Autoscroll
slow
fast
+/-
esc
set tempo
stop
Help us to improve Ultimate-Guitar.com Take our survey!
×
---------------------
---------------------
---------------------
---4444-5555-7~------

-------------------------------------------------
------55-------------57--3--0--0-----------------
---3-------3?3-3--75-------------------5-5-0----- X2
-----------------------------------3-------------

-----------2--3---------------------------------
-----2--5--------5--2--3--2--0-----0------------
--3-----------------------------3------3--1--0--
------------------------------------------------

-------------2--3-------------------------
------2--5---------5--2--3---0------------
--3------------------------------3---0----
-----------------------------------------1

Nada te puedo dar?
-----------------------------------------------
-----------------------------------------------
---3333------3333---------------3-----------3-- X2
-----------3----------3----1111------1111------

La amargura?
-----------2--3--2--------5--3--2-----2--------------
-----2--5-----------5--2-----------5-----5--3-2-0----
--3------------------------------------------------3-
-----------------------------------------------------

-------------------------
-------------------------
-----3-3--------1--3-----
--1-------1--1--------3--

Y solo asi lo inmenso?
-------------------0--2------------------
----------------1--------3--0------------
-------2--5--2-----------------3--0------
-2--3--------------------------------1---

LA AMARGURA?
-----------2--3--2--------5--3--2-----2--------------
-----2--5-----------5--2-----------5-----5--3-2-0----
--3------------------------------------------------3-
-----------------------------------------------------

-------------------------
-------------------------
-----3-3--------1--3-----
--1-------1--1--------3--

-------------------0--2------------------
----------------1--------3--0------------
-------2--5--2-----------------3--0------
-2--3--------------------------------1---


-----------------------------------------------
-----------------------------------------------
---3333------3333---------------3-----------3--  X2
-----------3----------3----1111------1111------

La parte de la guitarra
-------------------------------------------------
------55-------------57--3--0--0-----------------
---3-------3?3-3--75-------------------5-5-0----- X2
-----------------------------------3-------------


Volvemos al bajo
-----------2--3---------------------------------
-----2--5--------5--2--3--2--0-----0------------
--3-----------------------------3------3--1--0--
------------------------------------------------

-------------2--3-----------------------------------
------2--5---------5--2--3---0----------3?0---------
--3------------------------------3---0-------3--0---
---------------------------------------------------1

-------------------------------------------------
------55-------------57--3--0--0-----------------
---3-------3?3-3--75-------------------5-5-0----- X2
-----------------------------------3-------------

La amargura?
-----------2--3--2--------5--3--2-----2--------------
-----2--5-----------5--2-----------5-----5--3-2-0----
--3------------------------------------------------3-
-----------------------------------------------------

-------------------------
-------------------------
-----3-3--------1--3-----
--1-------1--1--------3--

-------------------0--2------------------
----------------1--------3--0------------
-------2--5--2-----------------3--0------
-2--3--------------------------------1---

-------------------0--2-     -----------------
----------------1-------     -3--0------------
-------2--5--2---------- x3  -------3--0------
-2--3-------------------     -------------1---

Al final solo dejense llevar e improvisen,
token cualquier parte lento y suena chido,
bueno los mismos consejos de siempre escuchen
 la rola para el tiempo y califiquen chido,dudas
o aclaraciones a jorgea91@
Suggest correction
Give kudos to tab author, rate the tab!
1 2 3 4 5
comments
print report bad tab
guest
You may want to rate the tab now too:
select rating
Wanna post a correction for this tab? Suggest correction