Oops, an error
Loading. Please wait.

Tan Sólo Esta Cancion Bass Tab

version 2
version 2

Whole song

5 views 1 this week
no commentswrite comment
1 2 3 4 5
3 more votes to show rating
add to favorites
launch autoscroll
font size
0
reset
guitar tuner
Autoscroll
slow
fast
+/-
esc
set tempo
stop
Help us to improve Ultimate-Guitar.com Take our survey!
×
Esta es mi tercera transcripción. Una canción que en sus tiempos cató
Germán Valdez Tintan, ahora en la versión en ska interpretada por
Salón Victoria. Dejo este tab porque el del otro camarada tiene
algunos errores y este esta mas exacto.

Intro
G|------------------|
D|-------------2----|
A|---2222-2222------|
E|------------------|

Cuando comienza la melodía va así

G|-----------------2h4------------------|
D|------44-----44-------2---------------|
A|---2------2?-------------22-----22----| X2
E|-----------------------------0----0---|

G|--------1-2-1---------------------------1-2-1---------------|
D|----1-4-------4-1-2-1---------------1-4-------4-1--2-0------|
A|--2-------------------4-2-4-----1-2--------------------2----|
E|----------------------------2-4--------------------------4-0|

Nada te puedo dar?
G|-------------------------------------------
D|-------------------------------------------
A|---2222------2222-------------2---------2--
E|---------2---------2----0000------0000-----

--------------------------------------4--|
----------------------2222------2222-----|
-2222------2222-------------2------------|
-------2---------2-----------------------|

La amargura?   x2
G|--------1-2-1-----4-2-1---1------------------------------------2h4
D|----1-4-------4-1-------4---4-1-----------------------------2-4---
A|--2----------------------------4-1-----22-2-----2------1-4-2------
E|----------------------------------4-0-------0--4--4--2------------

----------|
-2-0------|
-----2----|
-------4-0|

En la parte del trombón
G|-------------------------------------------
D|-------------------------------------------
A|---2222------2222-------------2---------2--
E|---------2---------2----0000------0000-----

-----------------------------------------|
----------------------2222------2222-----|
-2222------2222-------------2---------2--|
-------2---------2-----------------------|


La parte de la guitarra

G|-----------------2h4------------------|
D|------44-----44-------2---------------|
A|---2------2?-------------22-----22----| X2
E|-----------------------------0----0---|

Luego va música con este bajeo
G|--------1-2-1---------------------------1-2-1---------------|
D|----1-4-------4-1-2-1---------------1-4-------4-1--2-0------|
A|--2-------------------4-2-4-----1-2--------------------2----|
E|----------------------------2-4--------------------------4-0|

Luego la melodía del principio pero solo la que lleva este bajeo
G|-----------------2h4------------------|
D|------44-----44-------2---------------|
A|---2------2?-------------22-----22----| X2
E|-----------------------------0----0---|

La amargura?   x2
G|--------1-2-1-----4-2-1---1------------------------------------2h4
D|----1-4-------4-1-------4---4-1-----------------------------2-4---
A|--2----------------------------4-1-----22-2-----2------1-4-2------
E|----------------------------------4-0-------0--4--4--2------------

----------|
-2-0------| En la segunda parte se repiten tres veces unos compases
-----2----| que dan la salida hacia la parte final instrumental
-------4-0|

El final instrumental
G|------6h8-6-9---------6h8-6---|
D|---6-9-------------6-9------6-|
A|-7---------------7------------|
E|------------------------------|

G|-----------------9-8-7---7---------|
D|---------6---6-7-------9---9-7-6---|
A|-7-6-7-9---9---------------------9-| x6
E|-----------------------------------|

G|------6h8-6-9------|
D|---6-9-------------|
A|-7---------------7-|
E|-------------------|

Pues esta fue mi transcripción espero que les ayude.
Dudas, quejas, sugerencias o peticiones de canciones en ritmo de ska,
rocksteady, reggae, chumbia, salsa, punk etc. ahí les dejo mi correo
iori_95maldito@
Suggest correction
Give kudos to tab author, rate the tab!
1 2 3 4 5
comments
print report bad tab
guest
You may want to rate the tab now too:
select rating
Wanna post a correction for this tab? Suggest correction