Oops, an error
Loading. Please wait.

Búsqueda Tab

version 4
version 4

Whole song

15 views 1 this week
no commentswrite comment
1 2 3 4 5
3 more votes to show rating
add to favorites
launch autoscroll
font size
0
reset
how to read this tab
guitar tuner
Autoscroll
slow
fast
+/-
esc
set tempo
stop
Help us to improve Ultimate-Guitar.com Take our survey!
×
Esta transcripción corresponde a la versión acústica del tema.
Intro:

e|-----------0-------------0--------------------------------|
B|----3-----3-3-----3-----3-3-----0--0--0---0--0-0--0--0----|
G|---0-0---0---0---0-0---0---0---0--0--0-0-0--0-0-0--0--0-0-|
D|--4-----4-------4-----4-------3--2--1---1--0-----0--0--0--|
A|-5-----5-------5-----5------------------------------------|
E|----------------------------------------------------------|

e|-----------------------------|
B|---0--0--0---0--0--<12>------|
G|--0--0--0-0-0--0-0---<12>----|
D|-3--2--1---1--0--------<12>--|
A|-----------------------------|
E|-----------------------------|

------------------------------------------------------------------
Riff 2 (C*)
e|-----------0---|
B|----3-----3-3--|
G|---0-0---0---0-|
D|--4-----4------|
A|-5-----5-------|
E|---------------|

Riff 1 con C
e|-----------0--|
B|----1-----1-1-|
G|---0-0---0---0|
D|--2-----2-----|
A|-3-----3------|
E|--------------|

Riff 3 con Bm
e|----2-----2---|
B|-----3-----3--|
G|---4--4--4--4-|
D|--4-----4-----|
A|-2-----2------|
E|--------------|

   Riff2(C*)              Riff1(C)
   Tanto por ver y tanto por hacer.
   Y tanto tiempo para malgastar.
   Mucho pez, poco cerebro.
   Un esquema incuestionable:
   Riff3(Bm)                 C/G
   Le dicen sociedad.

   C*              C
   Hay tanto, tanto implícito.
   Tantos tableros por patear.
   Mucho pez, poca carnada.

   C*        C           Bm              C/G
   En una cuenta regresiva a la que llaman vida.

   C*                   C
   Tanto hecho por las campañas.
   Como hipocresía para derrochar.
   Mucho pez, pero poco salmón.

   C*            C            Bm                C/G    Bm  C/G
   Mil sonrisas, dos mil besos en formato televisión.


   D     A          G           A
   Puedo vivir buscando la belleza
   D     A         C/G                 G
   En las palabras con que se expresa mi alma.
   D      A               G                A
   No resignarme y seguir soñando, seguir soñando
   D      A         Bb7  C/G            A7
   Aunque mis sueños sólo sean pesadillas.

Puente:
e|-----------0-------------0--------------------------------|
B|----3-----3-3-----3-----3-3-----0--0--0---0--0-0--0--0----|
G|---0-0---0---0---0-0---0---0---0--0--0-0-0--0-0-0--0--0-0-|
D|--4-----4-------4-----4-------3--2--1---1--0-----0--0--0--|
A|-5-----5-------5-----5------------------------------------|
E|----------------------------------------------------------|

e|-----------------------------|
B|---0--0--0---0--0--<12>------|
G|--0--0--0-0-0--0-0---<12>----|
D|-3--2--1---1--0--------<12>--|
A|-----------------------------|
E|-----------------------------|

   C*                   C
   Tanto personaje nefasto
   como amnesia en la sociedad.
   Poco pez, mucho tiburón.
   C*        C          Bm       C/G
   Si hay memoria, no dejemos olvidar
   C*                     C
   Veo tantos ponzio pilatos
   Que hoy sería uno más.
   Mucho pez, tanto anzuelo
   C*               C          Bm      C/G   Bm  C/G
   Tengo las manos limpias las pienso usar.


   D      A       G               A
   Puedo vivir buscando la belleza
   D      A       C/G                  G
   En las palabras con que se expresa mi alma.
   D      A               G                A
   No resignarme y seguir soñando, seguir soñando
   D      A      Bb7  C/G
   Aunque mis sueños sólo sean pesadillas.


   D      A      C/G             G
   Podré morir sin encontrar jamás
   D      A           C/G                  G
   Eso que eclipse mis ganas de seguir buscando.
   D      A          G                A
   Porque en la lucha se refleja el alma.
   D       A   Bb7  C/G              D         A
   Y en el alma,                    la integridad.

 Final:  G    A    D    C/G   G  (2 veces)

Cualquier tipo de duda que tengan, no duden en consultarme.
Emiliano Frega.
Suggest correction
Give kudos to tab author, rate the tab!
1 2 3 4 5
comments
print report bad tab
guest
You may want to rate the tab now too:
select rating
Wanna post a correction for this tab? Suggest correction