Oops, an error
Loading. Please wait.

Si Tuvieras Fé Tab

154 views 1 this week
no commentswrite comment
1 2 3 4 5
3 more votes to show rating
add to favorites
launch autoscroll
font size
0
reset
how to read this tab
guitar tuner
×
Best way to learn
"Si Tuvieras Fé"
Autoscroll
slow
fast
+/-
esc
set tempo
stop
Hola esta es la entrada de esta cancion y s esta manejando
las nootas consejilla espero que les guste

Entrada: Dm         A
e:-5-5-5-5-5-5-----5-5-5------------------------------------------|
b:-6-6-6-6-6-6-----5-5-5------------------------------------------|
g:-7-7-7-7-7-7-----6-6-6------------------------------------------|
d:-7-7-7-7-7-7-----7-7-7------------------------------------------|
a:-5-5-5-5-5-5-----7-7-7------------------------------------------|
e:-5-5-5-5-5-5-----5-5-5------------------------------------------|

solo:
e:-6-8-6h8-5------------------------------------------------------|
b:-----------8-6-8-6h8-5-------5-6-8-6h8-5------------------------|
g:-----------------------7-6-7-------------7-5--------------------|
d:---------------------------------------------7-5----------------|
a:-------------------------------------------------7--------------|
e:----------------------------------------------------------------|

final:
e:-5-5-5----------------------------------------------------------|
b:-5-5-5----------------------------------------------------------|
g:-6-6-6----------------------------------------------------------|
d:-7-7-7----------------------------------------------------------|
a:-7-7-7----------------------------------------------------------|
e:-5-5-5----------------------------------------------------------|

            Dm                Gm     A
Si tuvieras fe, como un grano de mostaza
 Dm              A
Eso lo dice el Señor
            Dm                Gm     A
Si tuvieras fe, como un grano de mostaza
 Dm              A
Eso lo dice el Señor


       Gm           Dm           A       Dm
Tu le dirías a la montaña, mueveté! Mueveté!
       Gm           Dm           A       Dm
Tu le dirías a la montaña, mueveté! Mueveté!


               Gm   A                   Dm
Esa montaña se moverá, se moverá, se moverá
                   A                   Dm
Esa montaña se moverá, se moverá, se moverá


Bueno pues espero que les guste la cancion solamente les digo que
la nota [Gm] es una pasadita solamente al empesar la cancion y en
donde dice (ESA MONTAÑA SE...) despues de eso los tonos son normales
espero que les guste y les sirva de mucho
que DIOS LOS BENDIGA
Suggest correction
Give kudos to tab author, rate the tab!
1 2 3 4 5
comments
print report bad tab
guest
You may want to rate the tab now too:
select rating
Wanna post a correction for this tab? Suggest correction