Oops, an error
Loading. Please wait.

Máquinas Tab

18 views 1 this week
no commentswrite comment
1 2 3 4 5
3 more votes to show rating
add to favorites
×
Save as Personal and add changes to this tab that will be seen only by you. Learn more ›
×
You can save this tab as Personal to edit and correct it or add notes. All changes will be seen only by you. Learn more »
save as personal
new!
launch autoscroll
font size
0
reset
how to read this tab
guitar tuner
Autoscroll
slow
fast
+/-
esc
set tempo
stop
Weno, señores, de nuevo nos vemos las caras. Akí os dejo la canción
de mákinas, de salvate si puedes. Espero que os mole. Yo creo que
está bastante bien, pero si veis algún error, me decís, a
txingurrin_98_99@ Weno, aki está.

Intro: A#5 F5 D#5

e---------------------------------------------------------------|
B---------------------------------------------------------------|
G--2-3---2-3-3-3--3p2-3-3-3--3p2-3-3-3--3-3/5-3-2-3--2-3-3-3--3-|
D---------------------------------------------------------------|
A---------------------------------------------------------------|
E---------------------------------------------------------------|


e-----------------------------|
B-----------------------------|
G--3/5-3-2-3-3/7-7-7-7-8-8-8--|
D-----------------------------|
A-----------------------------|
E-----------------------------|

VERSO:
A#5                        F5
   Máquinas controladas por máquinas
D#5             A#5                D#5              F5
   es el futuro negro que VUESTRO PROGRESO nos depara
A#5                     F5
   ya se ve que aquí el dinero es lo que manda
D#5                          A#5             D#5
   cuando algo no resulta rentable o es anticuado
         F5
se elimina.

PUENTE:
D5                          A#5 D#5 D5 X2 (escuchadlo pa ver como va)
  Juntos de nuevo tú y yo aquí
D5                                          A#5 D#5 D5 X2
  tú me miras y yo te observo, VAYA FRUSTRACION.
D5
  Seguiremos caminos iguales
G5
  hemos sido simples peones
D#5                     F5
  sustituidos por las máquinas.

VERSO:
A#5                          F5
   Un error esto que llaman evolución
D#5                   A#5                D#5             F5
   la juventud que se queda chupando banquillo en las aceras
A#5                          F5
   y alguien cree que lo que pasa es que nos gusta
D#5                     A#5          D#5           F5
   por eso a menudo nos llaman juventud despreocupada

PUENTE:
D5                         A#5 D#5 D5 X2
  Juntos de nuevo tú y yo aquí
D5                                          A#5 D#5 D5 X2
  dos currelas sin un currelo, vaya frustración
D5
  Esperamos a TIEMPOS MEJORES
G5
  conversando y pribando en los bares
D#5                          F5
  MAS BIEN JODIDOS por las máquinas.

ESTRIBILLO:
A#5                          F5
  Ciencia que nos quitas el derecho a ganarnos la vida
C5                     D#5
  hipotecando nuestro porvenir
A#5                          F5
  Ciencia que nos quitas el derecho a ganarnos la vida
C5                           D#5                       A#5
  nos dejas de lado, nos sustituyes por las putas máquinas.


SOLO:

e----------------------------------------------------------------|
B-----------------------------------------------------6-4-3------|
G--3-2-0-2-3-2-0-2--5-3-2-3-5-3-2-3--3-2-0-2-3-2-0-2--------5-3-2|
D----------------------------------------------------------------|
A----------------------------------------------------------------|
E----------------------------------------------------------------|

e-----------------------------------------|
B--6--------6-4-3--------6--------4-3h4-6-|
G----3-2-3--------5-3-2----3-2-3----------|
D-----------------------------------------|
A-----------------------------------------|
E-----------------------------------------|

ESTRIBILLO: A#5 F5 C5 D5

OUTRO: A#5 F5 D#5 X2 A5 A#5 (escuchadlo pa ver como es el ritmo,
                             es mu fácil de pillar)

Weno espero que esto os guste y que os ayude, pa lo que sea, soy
principiante en esto de tabular así que lo siento si alguno cree
q está mal organizao o tabulao. lo hice lo mejor que pude.
Weno, lo dixo, nos vemos pronto con otra tab de este grupo. Txingu.
Recuerdos a Ivanín y Demi y a todos los del garito.
Suggest correction
Give kudos to tab author, rate the tab!
1 2 3 4 5
comments
print report bad tab
guest
Wanna post a correction for this tab? Suggest correction