Oops, an error
Loading. Please wait.

Palabras Vacías Tab

30 views 1 this week
no commentswrite comment
1 2 3 4 5
3 more votes to show rating
add to favorites
launch autoscroll
font size
0
reset
how to read this tab
guitar tuner
×
Best way to learn
"Palabras Vacías"
Autoscroll
slow
fast
+/-
esc
set tempo
stop
Weno. Como prometí, akí envío otra tablatura de este gran grupo de
la que, para mi, es una de sus mejores canciones. Ahí va, que la
disfruteis. Txingu.

Intro: Am F G (escuchad LA canción pa pillar el ritmillo, es fácil)

Riff INTRO (PALM MUTE)

e-----------------------    e-------------
B-----------------------    B-------------
G--10-9-7----7----------    G--7----------
D---------10---10-7-10-- x3 D----10-7-10-- x2  Se repite
A-----------------------    A-------------     todo una
E-----------------------    E-------------     vez más


e--------
B--------  Así acaba el riff de la intro.
G--9/14--


Am               F        G
  Hasta qué punto el dolor ha nublado mi cabeza
Am               F        G
  se convierte en obsesión ahora que noto tu ausencia.

Riff1
e------------------------------------------------
B--------5-3--------5-3-5-3--------5-3-5-5/6-5-3-
G--2-4-5------2-4-5----------2-4-5---------------
D------------------------------------------------   x2
A------------------------------------------------
E------------------------------------------------


Am                C           F
  Despertar de un dulce sueño, qué terrible desilusión
Am              C                         F
  quien te elige al final es quien te deja hecho pedazos el corazón.


Sobre estos dos versos suena esto (riff2):
e-----------------------------------------
B--------------0-1----0-1----0-1----1-3-1-
G--2-0------2-------2------2------2-------
D------2-3--------------------------------
A-----------------------------------------
E-----------------------------------------

ESTRIBILLO:
Sobre el estribillo suena esto, escuchadlo y vereis que es mu facil:
e--------------------     e-----------------
B-------------------- x3  B--555...--777...-
G--10-9-10-12-14p12--     G-----------------


C G E  F                   G
        La noche que en ti pienso no duermo
C      G         E (esto es aproximado, oidlo pa saber como va)
siento escalofríos aunque sigo en el infierno
F                 G              C       G       E
  echo en falta tu fiel compañía, sigo oyendo tu voz
F                     G
  a tu lado aunque tú estés tan lejos.
F
  Me acostumbré a escucharte en silencio
G               G/F                           F/G
  tantas promesas que quedaron en palabras vacías.

VERSO 2: riff 2 o acordes

Am              C
  Paso el tiempo escribiendo tus versos
F
  recordando las noches de acción
Am           C
  imagino que abres la puerta
F
  entonando la misma canción.


ESTRIBILLO:

C G E  F                    G
         La noche que en ti pienso no duermo
C      G          E
siento escalofríos aunque sigo en el infierno
F                 G              C       G       E
  echo en falta tu fiel compañía, sigo oyendo tu voz
F                    G
  a tu lado aunque tú estés tan lejos.
F
  Me acostumbré a escucharte en silencio
G               G/F                           F/G
  tantas promesas que quedaron en palabras vacías.

PUENTE AL SOLO: RIFF 3 O ACORDES

e------------
B------------
G--2-0--/12-- X2
D------------
A------------
E------------

Am              F
  Nunca tuve bastante valor
G
  para poderme sacar esta espina
Am                F
  y decirte a la cara por qué
G
  te convertiste en la próxima víctima.

SOLO

e------------------------------------------------------------
B--------5-3--------5-3-5-3--------5-3-5-5/6-5-3---------5-3-
G--2-4-5------2-4-5----------2-4-5-----------------2-4-5-----
D------------------------------------------------------------
A------------------------------------------------------------
E------------------------------------------------------------


e---------------------------------------------------------------
B--------5-3-5-3--------5-3-5-5/6-5-3-6-5-------5-5/8-6-6/12-13-
G--2-4-5----------2-4-5-------------------5-2-5-----------------
D---------------------------------------------------------------
A---------------------------------------------------------------
E---------------------------------------------------------------


e----------------------------------------------------------------------
B--12-13-12--13-12-10--12-10-----10------------------6-5-6p5-3---------
G----------------------------12-----12-10--12-10-9-------------5-4-2-4-
D----------------------------------------------------------------------
A----------------------------------------------------------------------
E----------------------------------------------------------------------


e-------------------------------------------------------------
B--------6-5-3------------------6-5-3------------3------6-5-3-
G--5-4-2-------5-4-2-4-5--4-2-0-------5-4-2-4-5----5-4--------
D-------------------------------------------------------------
A-------------------------------------------------------------
E-------------------------------------------------------------


e---------------------------------------------------------------------
B--10-8-6-8--10-10/13--12-13-13/15-15-15-15--13-15-15/17--17-15-17/18-
G---------------------------------------------------------------------
D---------------------------------------------------------------------
A---------------------------------------------------------------------
E---------------------------------------------------------------------

OUTRO: Am F G Am (mismo ritmo que en la intro)
       RIFF INTRO una sola vez


Weno, espero que os guste y que os ayude. A ver si pronto cuelgo
alguna más. Si me dejan...
Weno un saludo pa toa la peña de Santander y de Barcelona. Txingu
Pa alguna duda, txingurrin_98_99@
Suggest correction
Give kudos to tab author, rate the tab!
1 2 3 4 5
comments
print report bad tab
guest
You may want to rate the tab now too:
select rating
Wanna post a correction for this tab? Suggest correction