Oops, an error
Loading. Please wait.

Doy Un Paso Atrás Tab

172 views 1 this week
no commentswrite comment
1 2 3 4 5
3 more votes to show rating
add to favorites
launch autoscroll
font size
0
reset
how to read this tab
guitar tuner
Autoscroll
slow
fast
+/-
esc
set tempo
stop
Help us to improve Ultimate-Guitar.com Take our survey!
×
 (CAPO EN 1ER TRASTE)
INTRO:

  Em            C              G             Dsus2
e-----------------------------------------------------0------
B-----------0------------------0------------------3---3------
G------0-------2----------0------2----------0---------2------
D---------2------------2-----2-----------0-----0------0------
A----2--------------3----------------------------------------
E--0----------------------------------3-----------3----------

  Em            C              G             Dsus2
e-----------------------------------------------------0------
B-----------0------------------0------------------3---3------
G------0-------2----------0------2----------0---------2------
D---------2------------2-----2-----------0-----0------0------
A----2--------------3----------------------------------------
E--0----------------------------------3-----------3----------

VERSOS

C                                       G
Tienes que soltar mi mano y seguir tu camino
C                                       G
Tienes que apagar tu llanto y decirme adiós
Em                             D/F#      G
Sé que yo perdí tu amor en un simple descuido
                      Am7                      D
Cuando pude abrir los ojos, ya no éramos lo mismo

C                                          G
Se apagaron las estrellas que tú y yo encendimos
C                                     G
Dentro tuyo se hizo piedra todo ese dolor
Em                                   D/F#     G
Tuve el cielo entre tus brazos y lo eche al vacío
                        Am                        D
Por creer que estaba escrito en las hojas del destino


ESTRIBILLO

G                                 D
Doy un paso atrás, vete? ya no intentes regresar
               Em           D
Es hora de borrarme de tus labios
       Am7               D
Porque ya no quiero hacerte daño
G                           Dm
Tienes que escapar ya no detengas a mirar
          Em             D         Am7
Este corazón lleno de espinas que te lastima
D              Em
Doy un paso atrás?

INTER: Em C G D

C                                         G
Tienes que encontrar tu sueño lejos de mi vida
C                                    G
Y guardar en el olvido el eco de mi voz
Em                               D/F#        G
Por qué no aprendí a escuchar cuando tenías frio?
                          Am7                       D
Por creer que estaba escrito en las hojas del destino


ESTRIBILLO

G                                 D
Doy un paso atrás, vete? ya no intentes regresar
               Em           D
Es hora de borrarme de tus labios
       Am7               D
Porque ya no quiero hacerte daño
G                           Dm
Tienes que escapar ya no detengas a mirar
          Em             D         Am7
Este corazón lleno de espinas que te lastima
D              Em             C           G     D
Doy un paso atráaaaaaaaaaas? OOOhhhhh

                                  D
Doy un paso atrás, vete? ya no intentes regresar
               Em           D
Es hora de borrarme de tus labios
       Am7               D
Porque ya no quiero hacerte daño
G                            Dm
Tienes que escapar? ya no detengas a mirar
         Em              D         Am7
Este corazón lleno de espinas que te lastima
D             Em
Doy un paso atrás

  Em            C              G             Dsus2
e-----------------------------------------------------0------
B-----------0------------------0------------------3---3------
G------0-------2----------0------2----------0---------2------
D---------2------------2-----2-----------0-----0------0------
A----2--------------3----------------------------------------
E--0----------------------------------3-----------3----------

C                                         G
Tienes que soltar mi mano y seguir tu camino?


Bueno no es dificil de tocar este gran tema de Samo, en la parte
de los versos puse un D/F# pero es a modo de arreglo entre el paso
de acordes, si quieren no lo hagan para simplificar mas las cosas
y el CAPO en el 1er traste es para tocarlo en el mismo
tono que en el cd, si lo hacen sin el capo les sera mas facil de
cantar pero obviamente no lo podran tocarlo sobre el cd...
cualquier duda o consulta 
en facebook o migspider007@ y los ayudo!!! ;)
Suggest correction
Give kudos to tab author, rate the tab!
1 2 3 4 5
comments
print report bad tab
guest
You may want to rate the tab now too:
select rating
Wanna post a correction for this tab? Suggest correction