Oops, an error
Loading. Please wait.

El Último Tren Tab

38 views 1 this week
no commentswrite comment
1 2 3 4 5
3 more votes to show rating
add to favorites
launch autoscroll
font size
0
reset
how to read this tab
guitar tuner
×
Best way to learn
"El último Tren"
Autoscroll
slow
fast
+/-
esc
set tempo
stop
Bueno, esta es una cancion que me gusta bastante,
y me puse a dedicarle tiempo y pues ahi esta...

Va dedicada a mis amigos incondicionales, a todos mis amigos
de la banda que un día tuve, y a mis nuevos parceros de la U,
que vean que no soy del todo un 

En las notas estoy casi seguro que no hay ningún error,
si en el solo hay algun detalle por corregir, te lo agradezco.

Notas: (las 'x'no se tocan y en la tab significan pausas)


    D    D5     G     Bm    A
e|--3--|--0--|--3--|--2--|--0--|
b|--2--|--2--|--3--|--3--|--2--|
g|--3--|--3--|--4--|--4--|--2--|
d|--0--|--0--|--5--|--4--|--2--|
a|--x--|--x--|--5--|--2--|--0--|
e|--x--|--x--|--3--|--2--|--0--|

Hay dos guitarras en toda la canción, la eléctrica solo hace
arpegio y toca el solo, la acustica solo rasga suave, sin hacer
notar mucho los bajos.


   D5                            D5
e|-------5-5-----------5--5-----|-------5-5-----------5--5-----|
b|-----3-----3-------3------3---|-----3-----3-------3------3---|
g|---2---------2-x-2----------2-|---2---------2-x-2----------2-|
d|-0----------------------------|-0----------------------------|
a|------------------------------|------------------------------|
e|------------------------------|------------------------------|

   D5                            D5
e|-------5-5-----------5--5-----|-------5-5-----------5--5-----|
b|-----3-----3-------3------3---|-----3-----3-------3------3---|
g|---2---------2-x-2----------2-|---2---------2-x-2----------2-|
d|-0----------------------------|-0----------------------------|
a|------------------------------|------------------------------|
e|------------------------------|------------------------------|

   Bm    A         G
e|-------5-5-----------5--5-----|-------5-5-|
b|-----3-----3-------3------3---|-----3-----|
g|---2---------2-x-2----------2-|---2-------|
d|-0----------------------------|-0---------|
a|------------------------------|-----------|
e|------------------------------|-----------|


D          D5   D/D5
Con una llamada,

G                   D       D5    D/D5
 me dices que tu te marchas,

G                         D       D5    D/D5
 dejandome solo y sin ver nada.


   G
e|-------5-5-----------5-5-|
b|-----3-----3-------3-----|
g|---2---------2-x-2-------|
d|-0-----------------------|
a|-------------------------|
e|-------------------------|


   D      D5   D/D5
e|-------3-0h3-|
b|-----3-------|
g|---2---------|
d|-0-----------|
a|-------------|
e|-------------|
  un gran dolor

   G                     D       D5   D/D5
e|--------3--------------------3-5--------|
b|-----3---------------------3------------|
g|-0-----------------------2--------------|
d|-----------------------0----------------|
a|----------------------------------------|
e|----------------------------------------|
   me atravieza sin compasión,

   G                           D         D5   D/D5
e|--------5--------------------------x-2---|
b|-----3---------------------------3-------|
g|-2-----------------------------2---------|
d|-----------------------------0-----------|
a|-----------------------------------------|
e|-----------------------------------------|
   haciendome saber que es el adios,

   G                             D       D5   D/D5
e|--------3----------------------------3-5-|----5-5-|
b|-----3-----------------------------3-----|--3-----|
g|-0-------------------------------2-------|--------|
d|-------------------------------0---------|--------|
a|-----------------------------------------|--------|
e|-----------------------------------------|--------|
   haciendome entender que ya acabó...

  Bm            A      G
e|---3----------0--------|
b|---------------------2-|
g|-----------------------|
d|-----------------------|
a|-----------------------|
e|-----------------------|
  Talvez sea mi ultimo tren...

  Bm            A        G
e|-------3----------0-----------5-5-5-|
b|----------------------------3-------|
g|--------------------------2---------|
d|------------------------------------|
a|------------------------------------|
e|------------------------------------|
  Tal vez no te vuelva a ver...


---------------------------------------------------------------------
                                            |
e|-----------------------------------|      |Ésta parte es un
b|-----------------------------------|      |arpegiado de la guitarra
g|-----------------------------------|      |eléctrica en los
d|-5-5h7-5-------4--2----------------|      |bajos, se repite hasta
a|--------------------------9----7-5-|      |antes de comenzar
e|-----------------------------------|      |el solo.
                                            |
e|--------------------------------|         |Te recomiendo oir bien
b|--------------------------------|         |la canción para  notar
g|--------------------------------|         |los espacios entre
d|---------------------5----------|         |cada nota.
a|-----------4-2------------------|         |
e|--------------------------------|         |
                                            |

A                      G
Te  llevo metida en mi piel,

                  D   D5
en mi cabeza y lo sé

     D/D5          G
que no te vuelvo a ver

                                         D
te llevaste mi recuerdo y no lo quiero saber

                  D5            D/D5     A
que no tengo ya palabras para hacerte volver

                              G
que tengo miedo de volver a caer

      D
a tus pies...

SOLO <CON SENTIMIENTO>

"recuerdo que cualquier correción es agradecida, y que las 'x'
son pausas"

Los entre () son opcionales, si los vas a hacer que sean muy sutiles.

   D   D5 D/D5   G             D           D5       D/D5      A
e|---------------------|-----------------------------------------|
b|-5h7-7---------------|-8b7-8-10-x-7h8-10-7-8-10-x-10-7-8-10h12-|
g|-------x-7b4-7-4-----|-----------------------------------------|
d|--------(0)------x-7-|-----------------------------------------|
a|---------------------|-----------------------------------------|
e|---------------------|-----------------------------------------|
...pies...

               G                                   Bm
e|-------------------------------------------------|
b|-8b7-5-------------------------------------------|
g|--------7-------------------------------11h9-7-7-|
d|-------(0)-x-5h7-7-7-7h9-9-9-9h11-12b9-(0)-------|
a|-------------------------------------------------|
e|-------------------------------------------------|
                                                   Lo que...

Bm                                      A
Lo que te quiero decir es que te puedes ir

                                  G
al lugar donde quisiste vivir sin mi...

---------------------------------------------------------------------
                                            |
e|-----------------------------------|      |Ésta parte es un
b|-----------------------------------|      |arpegiado de la guitarra
g|-----------------------------------|      |eléctrica en los
d|-5-5h7-5-------4--2----------------|      |bajos, es parecida
a|--------------------------9----7-5-|      |a la que va antes de
e|-----------------------------------|      |el solo.
                                            |
e|--------------------------------|         |Te recomiendo oir bien
b|--------------------------------|         |la canción para  notar
g|--------------------------------|         |los espacios entre
d|---------------------5----------|         |cada nota.
a|-----------4-2------------------|         |
e|--------------------------------|         |
                                            |

             D   D5
Vete de aquí,

D/D5     G
vete sin mí,

                                 D
donde tu sombra no me cubra la espalda,

               D5        D/D5    A
no me llene de miedo que casi me mata,

         G
vete de aquí,

      D
vete sin mí.


SOLO DE FLAUTA

"El solo originalmente va en flauta, he aquí una versión en
guitarra"
Como consejo: suena mejor en acústica.


e|-------10-13-10-15-x-13h15-17-x-15-17b15-13-12-10b7-8----7h10-|
b|-11h12------------------------------------------------10------|
g|--------------------------------------------------------------|
d|--------------------------------------------------------------|
a|--------------------------------------------------------------|
e|--------------------------------------------------------------|

e|----9-10-12-13-17-13-15-17-19-20b17-15-14-12-17-15-12-|
b|-12---------------------------------------------------|
g|------------------------------------------------------|
d|------------------------------------------------------|
a|------------------------------------------------------|
e|------------------------------------------------------|

e|-15-14-12-x-10b9-10-7b5-5-|
b|--------------------------|
g|--------------------------|
d|--------------------------|
a|--------------------------|
e|--------------------------|

   Bm         A      G
Talvez sea mi último tren,

      Bm        A        G
e|------2---------0--------3-|
b|----3---------2--------3---|
g|----4---------2--------0---|
d|---------------------------|
a|---------------------------|
e|---------------------------|
   talvez no te vuelva a ver,

A                      G
 te llevo metida en mi piel.


OUT-TRO

"Se toca lo mismo del intro pero un poco mas suave"

   D               D5       D/D5  G
e|-------5-5-----------5--5-----|-------5-5-----------5--5-----|
b|-----3-----3-------3------3---|-----3-----3-------3------3---|
g|---2---------2-x-2----------2-|---2---------2-x-2----------2-|
d|-0----------------------------|-0----------------------------|
a|------------------------------|------------------------------|
e|------------------------------|------------------------------|

   D               D5       D/D5  G
e|-------5-5-----------5--5-----|-------5-5-----------5--5-----|
b|-----3-----3-------3------3---|-----3-----3-------3------3---|
g|---2---------2-x-2----------2-|---2---------2-x-2----------2-|
d|-0----------------------------|-0----------------------------|
a|------------------------------|------------------------------|
e|------------------------------|------------------------------|

   D               D5       D/D5  G
e|-------5-5-----------5--5-----|-------5-5-----------5--5-----|
b|-----3-----3-------3------3---|-----3-----3-------3------3---|
g|---2---------2-x-2----------2-|---2---------2-x-2----------2-|
d|-0----------------------------|-0----------------------------|
a|------------------------------|------------------------------|
e|------------------------------|------------------------------|

   D               D5       D/D5  A
e|-------5-5-----------5--5-----|---------0-|
b|-----3-----3-------3------3---|-------2---|
g|---2---------2-x-2----------2-|-----2-----|
d|-0----------------------------|---2-------|
a|------------------------------|-0---------|
e|------------------------------|-----------|


Comentarios o correciones
juliancho91rodrigo@
Suggest correction
Give kudos to tab author, rate the tab!
1 2 3 4 5
comments
print report bad tab
guest
You may want to rate the tab now too:
select rating
Wanna post a correction for this tab? Suggest correction