Oops, an error
Loading. Please wait.

Olvídate De Mí Tab

67 views 1 this week
no commentswrite comment
1 2 3 4 5
2 more votes to show rating
add to favorites
launch autoscroll
font size
0
reset
how to read this tab
guitar tuner
Autoscroll
slow
fast
+/-
esc
set tempo
stop
Help us to improve Ultimate-Guitar.com Take our survey!
×
Intro

e||-------------------------------------------------------2-||
B||-------------------------------------------------------3-||
G||-----3-------3---3-----3-------3---3-----3-------3---3-3-||
D||---0---0-0h2---0-----0---0-0h2---0-----0---0-0h2---0---2-||
A||-------------------------------------------------------2-||
E||-3-----------------3-----------------3-----------------3-||

    No me mires,             con esos ojos
e||--------------------------------------||
B||--------------------------------------||
G||-----3-------3---3-----3-------3---3--||
D||---0---0-0h2---0-----0---0-0h2---0----||
A||--------------------------------------||
E||-3-----------------3------------------||

    tristes,                que me gritan palabras
e||----------------------------------------||
B||----------------------------------------||
G||-----2---2h3h2---2-----2---2h3h2---2----||
D||---2---2-------2-----2---2-------2------||
A||-0-----------------0--------------------||
E||----------------------------------------||

    mudas,                 que me hacen recordar.
e||---------2h3h2-------------------------------------------2-||
B||---------------1-3---------------------------------------3-||
G||-----2-------------2---2---2h3h2---2-----3---------3---3-3-||
D||---0---0-------------0---0-------0-----0---0-0h2-2---0---2-||
A||---------------------------------------------------------2-||
E||-2-----------------------------------3-------------------3-||


     No busques más llamas en el
e||--------------------------------------||
B||--------------------------------------||
G||-----3-------3---3-----3-------3---3--||
D||---0---0-0h2---0-----0---0-0h2---0----||
A||--------------------------------------||
E||-3-----------------3------------------||

    gas, porque si no nos hemos
e||---------------------------------------||
B||---------------------------------------||
G||-----2---2h3h2---2-----2---2h3h2---2---||
D||---2---2-------2-----2---2-------2-----||
A||-0-----------------0-------------------||
E||---------------------------------------||

    de quemar,              seguro nos vamos
e||---------2h3h2--------------------||
B||---------------1-3----------------||
G||-----2-------------2---2---2h3h2--||
D||---0---0-------------0---0--------||
A||----------------------------------||
E||-2--------------------------------||

    a asfixiar.                  No veas lo que
e||-----------------------------------------||
B||-----------------------------------------||
G||-----3---------3---3-----3---------3---3-||
D||---0---0-0h2-2---0-----0---0-0h2-2---0---||
A||-----------------------------------------||
E||-3-------------------3-------------------||


no hay en mí, lo que no hay aquí, lo que ya te di.
    Gm             Cm                Gm
e||-----8-8----------8-8----------------10-10--10------||
B||---10--10--------8--8--------------11---11--11------||
G||-10----10-------8---8------------12-----12--12------||
D||-10----10------10---10-----------12-----12--12------||
A||---------------10---10-----------10-----10--10------||
E||----------------------------------------------------||

Olvídate de mí, olvídate de todo lo que yo te di.
      Gm              Cm             Gm       D#7 Gm
e||-------8-8-----------8-8-------------10-10--6--10-------------------||
B||-----10--10---------8--8-----------11---11--8--11-11-10-8-11-11-10-8||
G||---10----10--------8---8---------12-----12--6--12-------------------||
D||---10----10-------10---10--------12-----12--8--12-------------------||
A||------------------10---10--------10-----10--6--10-------------------||
E||--------------------------------------------6-----------------------||


                      Hazle caso                 a mí distancia
e||-------------------------------------------------------||
B||-------------------------------------------------------||
G||-----3-------3---3-----3-------3---3-----3-------3---3-||
D||---0---0-0h2---0-----0---0-0h2---0-----0---0-0h2---0---||
A||-------------------------------------------------------||
E||-3-----------------3-----------------3-----------------||

                            al desierto
e||--------------------------------------------------------||
B||--------------------------------------------------------||
G||-----2---2h3h2---2-----2---2h3h2---2--------------------||
D||---2---2-------2-----2---2-------2----------------------||
A||-0-----------------0------------------------------------||
E||--------------------------------------------------------||

                            de mis besos,
e||---------2h3h2---------------------------------------||
B||---------------1-3-----------------------------------||
G||-----2-------------2---2---2h3h2-----3---------3---3-||
D||---0---0-------------0---0---------0---0-0h2-2---0---||
A||-----------------------------------------------------||
E||-2-------------------------------3-------------------||

              a la lluvia en tus noches, al silencio que llevo adentro.
e||-------------------0----------0-----------2-----------------3------||
B||-------------------2----------1-----------1-----------------3------||
G||-----3-------3---3-3----------2-----------2-----------------3------||
D||---0---0-0h2---0---0----------2-----------0-----------------0------||
A||-------------------0----------0-----------0-----------------0------||
E||-3-----------------3----------------------2-----------------3------||

No veas lo que
    no hay en mí, lo que no hay aquí, lo que ya te di.
    Gm              Cm                 Gm
e||-----8-8-----------8-8-----------------10-10--10------||
B||---10--10---------8--8---------------11---11--11------||
G||-10----10--------8---8-------------12-----12--12------||
D||-10----10-------10---10------------12-----12--12------||
A||----------------10---10------------10-----10--10------||
E||------------------------------------------------------||

Olvídate de mí, olvídate de todo lo que yo te di.
       Gm              Cm              Gm        D#7 Gm
e||-------8-8-----------8-8---------------10-10---6--10---||
B||-----10--10---------8--8-------------11---11---8--11---||
G||---10----10--------8---8-----------12-----12---6--12---||
D||---10----10-------10---10----------12-----12---8--12---||
A||------------------10---10----------10-----10---6--10---||
E||-----------------------------------------------6-------||

Me vas a lastimar aquí
    D#7      Gm
e||--6-------10----------||
B||--8-------11----------||
G||--6-------12----------||  x3
D||--8-------12----------||
A||--6-------10----------||
E||--6-------------------||

Me vas a lastimaaar
    D#7      Gm
e||--6-------10--------------------------||
B||--8-------11--11-10-11-13-11-10-------||
G||--6-------12--------------------11-12-||
D||--8-------12--------------------------||
A||--6-------10--------------------------||
E||--6-----------------------------------||
Suggest correction
Give kudos to tab author, rate the tab!
1 2 3 4 5
comments
print report bad tab
guest
You may want to rate the tab now too:
select rating
Wanna post a correction for this tab? Suggest correction