Oops, an error
Loading. Please wait.

Adiós Tab

20 views 1 this week
no commentswrite comment
1 2 3 4 5
3 more votes to show rating
add to favorites
launch autoscroll
font size
0
reset
how to read this tab
guitar tuner
×
Best way to learn
"Adiós"
Autoscroll
slow
fast
+/-
esc
set tempo
stop
Intro:

e|-0------------|--|------------|----------------|
b|-0/4/2-0-2-0--|--|---2p0-----5|-----4----------|
g|-------------1|--|-1-----0-1--|-0-1-4----------|
d|-------------2|x2|------------|----------------|
a|--------------|--|------------|----------------|
E|-0------------|--|-0-----0----|-0---0---0--0--0|

Estrofa 1:
E
No puedo quedarme con vos, no puedo quedarme con vos
              Em/G     E
ya tengo que irme, es tarde
E
No creas que se adonde voy, no creas que se adonde voy
                Em/G   E
estoy muerto de miedo.
Pre-Estribillo:
A
Pero aquí podes estar contemplando
                 E            Esus4 
como las olas regresan al mar
A
y el cielo se oscurecio, te miro a los ojos y pienso:

Estribillo:
     F#m         G#m         A
e|----2-----|-4--4--4---|5----------|--||
b|----2-----|-4---4--4--|5-5--5--5--|--||
g|----2-----|-4----4--4-|6--6--6--6-|x2||
d|4---------|-6---------|7---7--7--7|--||
a|4---------|-6---------|7----------|--||
E|2---------|-4---------|5----------|--||
F#m    G#m     A
Adiooooooooos
F#m    G#m     A
Adiooooooooos


C                     E
nunca mas nos vamos a ver

Estrofa 2:
E
Mi zanahoria se va, mi zanahoria se va,
                 Em/G     E
y no quiero perderla, es mia.

Acá es así:
           E5                          Em/G             E5
e|------------------------|--|------------------------|-----||
b|------------------------|--|------------------------|-----||
g|------------------------|--|------------------------|IGUAL||
d|2-2--2-2-2--2-2-2--2-2-2|x2|2-2--2-2-2--2-2-2--2-2-2|-----||
a|2-2--2-2-2--2-2-2--2-2-2|--|2-2--2-2-2--2-2-2--2-2-2|-----||
E|0-0--0-0-0--0-0-0--0-0-0|--|3-3--3-3-3--3-3-3--3-3-3|-----||
E5
No creas que se adonde voy, no creas que se adonde voy
Em/G                     E5
estoy muerto de miedo.

Pre-Estribillo:
A
Pero aquí podes estar contemplando
                 E            Esus4 
como las olas regresan al mar
A
y el cielo se oscurecio, te miro a los ojos y pienso:

Estribillo:
     F#m         G#m         A
e|----2-----|-4--4--4---|5----------|--||
b|----2-----|-4---4--4--|5-5--5--5--|--||
g|----2-----|-4----4--4-|6--6--6--6-|x2||
d|4---------|-6---------|7---7--7--7|--||
a|4---------|-6---------|7----------|--||
E|2---------|-4---------|5----------|--||
F#m    G#m     A
Adiooooooooos
F#m    G#m     A
Adiooooooooos

C                     C#m
nunca mas nos vamos a ver


Puente:                         Fill
e|---------|---------|---------|-----|---------|--------|
b|---------|---------|---------|-----|---------|--------|
g|---G-----|---F#m---|---C#m---|-----|---F#m---|---B7---|
d|---------|---------|---------|-----|---------|--------|
a|---------|---------|---------|-4-2-|---------|--------|
E|---------|---------|---------|-----|---------|--------|
           G     F#m C#m (FILL)     G  F#m          B7
No existe nadie como vos, no tengo fuerza para dos.

Solo:
Todo sobre:
e|-------------------||
b|-12-12-12-12-12-12-||
g|-------------------||
d|-------------------||
a|-------------------||
E|-------------------||
   F#m     G#m           A
e|----2--|----4--|--------------|--||
b|-----2-|-----4-|----5---5--5--|--||
g|-------|-------|-6---6---6--6-|--||
d|-4-----|-6-----|-7----7---7--7|X2||
a|-4-----|-6-----|-7------------|--||
E|-2-----|-4-----|-5------------|--||

Y eso queda de base para el final:

Adios, adios, nunca mas nos vamos a ver


Gran tema, voy a mandar mas de Sanca la proxima

Saludos
Suggest correction
Give kudos to tab author, rate the tab!
1 2 3 4 5
comments
print report bad tab
guest
You may want to rate the tab now too:
select rating
Wanna post a correction for this tab? Suggest correction