Oops, an error
Loading. Please wait.

Arriba Bass Tab

15 views 1 this week
no commentswrite comment
1 2 3 4 5
3 more votes to show rating
add to favorites
launch autoscroll
font size
0
reset
guitar tuner
×
Best way to learn
"Arriba"
Autoscroll
slow
fast
+/-
esc
set tempo
stop
ACLARACION:
esta tablatura está escrita para tocar con un Bajo de 6 cuerdas...
porque Juani toca con 6... y yo tambièn!
seguramente se puede tocar con 4 o 5 cuerdas. pero no es lo mismo.


Arranca el Bajo de una!...
sigue donde entra Fede con "Arriba!!!" Y "Atravieso..."
C-------------------------
G-------------------------
D-------------------------
A-------------------------
E-3---1-2-3-------1-2-(3*)--
B---3-------3-(3)---------
(3*) es la primera nota del riff.
deben obviarla. es solo una ayuda

-"Arriba, amigo... es hora..."
C-----------------
G--------------3--
D--------------3--
A-----------------
E-3-1-3--3-3-3----
B-----------------

-"Amanezco, agradezco..."
C---------------------
G------------------3--
D------------------3--
A---------------------
E---------------------
B-3--0-3--0-3--0-3----

-"Atravieso el mar..."
C-------------------------
G-------------------------
D-------------------------
A-------------------------
E-3---1-2-3-------1-2-3*--
B---3-------3-(3)---------

-"Arriba, hermana... subite a mi tabla..."
C-----------------
G--------------3--
D--------------3--
A-----------------
E-3-1-3--3-3-3----
B-----------------

-"Mete pila... Meta pila..."
C---------------------
G------------------3--
D------------------3--
A---------------------
E---------------------
B-3--0-3--0-3--0-3----

-PUENTE (MUSICAL)
C----------------------------------
G----------------------------------
D----------------------------------
A----------------------------------
E-(Slide 7-0 x 2)----(Slide 12-5)--
B----------------------------------

-"Arriba, es mejor"
C----------------------------------
G----------------------------------
D-5--5-6--8-6-5----5--5-6--8-6-5---
A----------------------------------
E----------------------------------
B----------------------------------

TERMINA ESTA PARTE CON UN SLIDE DESDE:
E--(12-0)-------

Y ARRANCA CON DOS GOLPES SOBRE:
E--00--00--
B--00--00--

-"Y abrí el alma, no estás muerta..."
C-------------------------
G-------------------------
D-------------------------
A-------------------------
E-3---1-2-3-------1-2-3*--
B---3-------3-(3)---------

ASÌ HASTA EL FINAL

++++++++++++++++++++++++

SONRIE!... SANCAMALEON TE AMA!
tin


Suggest correction
Give kudos to tab author, rate the tab!
1 2 3 4 5
comments
print report bad tab
guest
You may want to rate the tab now too:
select rating
Wanna post a correction for this tab? Suggest correction