Oops, an error
Loading. Please wait.

En El Aire Tab

7 views 1 this week
no commentswrite comment
1 2 3 4 5
3 more votes to show rating
add to favorites
launch autoscroll
font size
0
reset
how to read this tab
guitar tuner
×
Best way to learn
"En El Aire"
Autoscroll
slow
fast
+/-
esc
set tempo
stop
Intro:

1º Guitarra:
e|-----------------------------|--|-----------------------------|--||
b|-----------------------------|--|-----------------------------|--||
g|-----------------------------|--|-----------------------------|--||
d|-----------------------------|x2|-----------------------------|x2||
a|-----------------------------|--|-----------------------------|--||
E|0-0-0-2-2-2-4-4-4-2-2-2-0-0-0|--|0-0-0-2-2-2-4-4-4-2-2-2-0-0-0|--||
2º Guitarra:
e|-----------------------------|--|-----------------------------|--||
b|-----------------------------|--|-----------------------------|--||
g|-----------------------------|--|-----------------------------|--||
d|-----------------------------|--|2-2-2-2-2-2-2-2-2-2-2-2-2-2-2|x2||
a|-----------------------------|--|-----------------------------|--||
E|-----------------------------|--|-----------------------------|--||

Estrofa 1:
C#m
Una vez, prometí
E
defender la espontáneidad
Bbm                A
el deseo y el gesto

C#m
Como un pez, en el mar
E
como un chiste que no entendés
Bbm                     A
no me vés, pero existo me estoy moviendo..

A
me estoy moviendo..

Corte:
e|-----------------------------|--|-----------------------------|--||
b|-----------------------------|--|-----------------------------|--||
g|-----------------------------|--|-----------------------------|--||
d|-----------------------------|x2|2-2-2-------1-1-1------------|x2||
a|-----------------------------|--|------4-4-4-------2-2-2-2-2-2|--||
E|0-0-0-2-2-2-4-4-4-2-2-2-0-0-0|--|-----------------------------|--||

C#m
Consumir, anhelar
E
cosas que no neceistas
Bbm                   A
dias que duran menos

C#m
Si llegaste hasta acá
E
no hay sentido en mirar atrás
Bbm                              A
el momento que viene es el primero...
A
siempre el primero...

Estribillo:
(Como corte)
Vamos de una vez..
hasta el cielo..
en el aire..
sentimientos..
(x2)

Solo:
      C#m       D               A
e|-----------|-----||--|---------------------||
b|----5-----5|-7br-||--|-5h7-7-7-7-5h7-7-7-7-||
g|----6-----6|-7br-||--|-6---6-6-5-6---6-6-5-||
d|6-6---6-6--|-----||x2|---------------------||
a|4-4---4-4--|-----||--|---------------------||
E|-----------|-----||--|---------------------||

Estribillo:
(Como corte)
Vamos de una vez..
hasta el cielo..
en el aire..
sentimientos..
(x3)

Fin: E (con PM)
Suggest correction
Give kudos to tab author, rate the tab!
1 2 3 4 5
comments
print report bad tab
guest
You may want to rate the tab now too:
select rating
Wanna post a correction for this tab? Suggest correction