Oops, an error
Loading. Please wait.

La Venganza De La Pacha Mamma Bass

14 views 1 this week
no commentswrite comment
1 2 3 4 5
3 more votes to show rating
add to favorites
launch autoscroll
font size
0
reset
guitar tuner
×
Best way to learn
"La Venganza De La Pacha Mamma"
Autoscroll
slow
fast
+/-
esc
set tempo
stop
Aclaración:
esta Tablatura está escrita para tocar con un bajo de 6 cuerdas.
es posible tocarlo en uno de 4 o 5, ya que no son tantas las notas
que se apoyan en las cuerdas 1ra y 6ta.

ARRANCA LA VOZ, Y SE PLIEGA EL BAJO
-"Tarde o temprano..." (REPITE TODA LA INTRO)
C---------------
G---------------
D--------9------
A-----10---10---
E-0-------------
B---------------

AL FINAL DE "es hora de que te des cuenta..." CUELGA EN
E-0---

-"el... monstruo gigante no quiere..."
(TODAS LAS ESTROFAS SON IGUALES)
C------------------------
G------------------------
D------------------------
A--------0---(2)----0----
E-(0)--3---3------3---3--
B------------------------(REPITE, HASTA...)

-"que la raiz es mas fuerte..."
C------------------------
G-------------------------
D-------------------------
A-------------------------
E-0-0-0-0-----0-0-0-0-----
B---------4-----------4---

-EN "todo lo qeu quiero sentir..."
HACE UN ARREGLO SOBRE ESTAS NOTAS:
C-----------------------
G-----------------------
D-(2)---(4)---(5)---(4)-
A-----------------------
E-----------------------
B-----------------------

-SALIDA MUSICAL
C---------------------------
G---------------------------
D---------------------------
A--------2-------------2----
E-(0)--3---3---(0)---3---3--
B---------------------------REPITE X 2

"anesteciados, por un sistema..."
VUELVE LA GUITARRA SOLA, CON EL RIFF DEL BAJO DE LA INTRO

-"yo quiero pasto..."
C---------------
G---------------
D--------9------
A-----10---10---
E-0-------------
B---------------

-"el... monstruo gigante no quiere..."
C------------------------
G------------------------
D------------------------
A--------0---(2)----0----
E-(0)--3---3------3---3--
B------------------------(REPITE, HASTA...)

-"que la raiz es mas fuerte..."
C-------------------------
G-------------------------
D-------------------------
A-------------------------
E-0-0-0-0-----0-0-0-0-----
B---------4-----------4---

-NUEVAMENTE, EN "todo lo que quiero sentir..."
HACE UN ARREGLO SOBRE ESTAS NOTAS:
C-----------------------
G-----------------------
D-(2)---(4)---(5)---(4)-
A-----------------------
E-----------------------
B-----------------------

-SALIDA MUSICAL
C---------------------------
G---------------------------
D---------------------------
A--------2-------------2----
E-(0)--3---3---(0)---3---3--
B---------------------------REPITE X 2
CORTA EN:

-EN "y mira... mirà... lo que nos..." HACE ALGO PARECIDO A ESTO:
C--------------------------------------7------7------9----------9--------
G-9---9---8----8---7---7-(9-7-6)-----5---5--6---6--7---7-(6-7-9---9-8----
D---9-------9--------7-----------7-9----------------------------------9)-
A------------------------------------------------------------------------
E------------------------------------------------------------------------
B------------------------------------------------------------------------

-"dejame, que te diga..."
C---------------
G---------------
D--------9------
A-----10---10---
E-0-------------
B---------------

-"la Pachamama!..."
C-----------------------------------------------------------------------
G-----------------------------------------------------------------------
D-----------------------------------------------------------------------
A-Slide(7-0)-----0-0-0---0-0-0------------------------------------------
E-----------------------------------------------------------------------
B-----------------------------------------------------------------------

-TODO EL FINAL ES SOBRE ESTE RIFF.-
C-----------------------------------------------------------------------
G-----------------------------------------------------------------------
D--------------------------2-1-2--5-4-2---------------------------------
A-----------------------------------------------------------------------
E-0---0-3--2----2-3-5-3-2-----------------------------------------------
B---0--------0----------------------------------------------------------


Espero la puedan tocar!
SONRIE!... SANCAMALEON TE AMA!
tin

Suggest correction
Give kudos to tab author, rate the tab!
1 2 3 4 5
comments
print report bad tab
guest
You may want to rate the tab now too:
select rating
Wanna post a correction for this tab? Suggest correction