Oops, an error
Loading. Please wait.

Así Tab

62 views 6 this week
no commentswrite comment
1 2 3 4 5
3 more votes to show rating
add to favorites
launch autoscroll
font size
0
reset
how to read this tab
guitar tuner
Autoscroll
slow
fast
+/-
esc
set tempo
stop
Help us to improve Ultimate-Guitar.com Take our survey!
×
Bueno, espero que les sea útil, cualquier cosa
mandenme un mándenme un mail:P

    Así            Como una rosa deshecha por el viento
e:--------7-------7-------7-------7-------2-6----2-6---------------
b:------8-------8-------8-------8-------2------2-------------------
g:----9-------8-------7-------6------------------------------------
d:-----------------------------------------------------------------
a:--7-------6-------5-------4--------------------------------------
E:----------------------------------2---------2--------------------

    Así             Como una hoja reseca por el sol
e:--------5-------4-------3-------2-------3-------3----------------
b:------5-------5-------5-------4-------5-------5------------------
g:----5-------5-------5-------4-------4-------4--------------------
d:-----------------------------------------------------------------
a:-----------------------------------------------------------------
E:--5-------4-------3-------2-------0-------0----------------------

    Así             Como se arroja de costado un papel viejo
e:--------4-------4-------7-------7--------8--------8--------------
b:------5-------5-------9-------9-------10-------10----------------
g:----4-------4-------9-------7-------9--------9-------------------
d:------------------0-------6--------------------------------------
a:----------------------------------0--------0---------------------
E:--4-------0------------------------------------------------------

   Así mi alma tu imagen arrojó
e:--------7-------7------------------------------------------------
b:------8-------7-------7-10-------7-------------------------------
g:----9-------8-------8----------8---------------------------------
d:-----------------------------9-----------------------------------
a:--7-------9------------------------------------------------------
E:------------------7--------7-------------------------------------

   Así               como se marcha la noche con el día
e:--------7-------7-------7-------7-------2-6----2-6---------------
b:------8-------8-------8-------8-------2------2-------------------
g:----9-------8-------7-------6------------------------------------
d:-----------------------------------------------------------------
a:--7-------6-------5-------4--------------------------------------
E:----------------------------------2---------2--------------------

   Así               como se aleja un velero en altamar
e:--------5-------4-------3-------2-------3-------3----------------
b:------5-------5-------5-------4-------5-------5------------------
g:----5-------5-------5-------4-------4-------4--------------------
d:-----------------------------------------------------------------
a:-----------------------------------------------------------------
E:--5-------4-------3-------2-------0-------0----------------------

  Así               como se escapa el agua entre los dedos
e:--------4-------4-------7-------7--------8--------8--------------
b:------5-------5-------9-------9-------10-------10----------------
g:----4-------4-------9-------7-------9--------9-------------------
d:------------------0-------6--------------------------------------
a:----------------------------------0--------0---------------------
E:--4-------0------------------------------------------------------

    Así              te dejé ir      sin meditar...
e:--------7-------7-------7-------7-------7-------7-------7--------
b:------8-------8-------7-------7-------8-------8-------9----------
g:----9-------9-------8-------8-------9-------9-------9------------
d:-----------------------------------------------------------------
a:--7-------7-------9---------------7-------7-------7--------------
E:--------------------------7--------------------------------------

Estribillo:

   Am                   D                        G
Mas hoy, que estoy tan solo y tan cansado de llorar

          E             E7        Am
quiero saber si tu querrías regresar

            D                       G
junto a mi lado para amarnos otra vez


    Tal vez         estés pensando que no quiera ya de ti
e:--------5-------5---------------------------------
b:------5-------5---------7-------7-------8-------8-
g:----5-------5---------8-------8-------9-------9---
d:--------------------9-------9-------9-------9-----
a:----------------------------------7-------7-------
E:--5-------5-------7-------7-----------------------

    Ese calor que alguna vez yo te pedí
e:----------------------------------------------------------------
b:--------8-------8------7-------7--------------------------------
g:------9-------9------6-------6----------------------------------
d:----9-------9------8-------8------------------------------------
a:--7-------7------9-------9--------------------------------------
E.----------------------------------------------------------------


y que después  abandoné
e:-----------5-------7-------7-8--7-------7-8--7-------7-------7-
b:---------5-------7-------8---8--7-----8---8--7-----8-------9---
g:-------5-------8-------9-----9--8---9-----9--8---9-------9-----
d:-----------------------------10-9---------10-9-----------------
a:---------------------7-------10-9-7-------10-9-7-------7-------
E:-----5------7----------------8--7---------8--7-----------------

(Estribillo)


Tal vez...
e:--------5-------5-----------------------------------------7-------7-
b:------5-------5---------7-------7-------8-------8-------8-------8---
g:----5-------5---------8-------8-------9-------9-------9-------9-----
d:--------------------9-------9-------9-------9-----------------------
a:----------------------------------7-------7-------7-------7---------
E:--5-------5-------7-------7-----------------------------------------

e:--------------------------5-------7------7-8--7-------7-8--7-0------
b:-------7-------7-10-----5-------7------8---8--7-----8---8--7-0------
g:-----6-------8--------5-------8------9-----9--8---9-----9--8-0------
d:---8---------------------------------------10-9---------10-9-2------
a:-9-------9-------------------------7-------10-9-7-------10-9-2------
E:--------------------5-------7--------------8--7---------8--7-0------
Suggest correction
Give kudos to tab author, rate the tab!
1 2 3 4 5
comments
print report bad tab
guest
You may want to rate the tab now too:
select rating
Wanna post a correction for this tab? Suggest correction