Oops, an error
Loading. Please wait.

Ciertas Emociones Chords

11 views 1 this week
no commentswrite comment
1 2 3 4 5
3 more votes to show rating
add to favorites
launch autoscroll
font size
0
reset
transpose
0
reset
display chords
guitar tuner
Autoscroll
slow
fast
+/-
esc
set tempo
stop
Help us to improve Ultimate-Guitar.com Take our survey!
×
CIERTAS EMOCIONES

RIFF X 2
E----------------------------------------------------------/
B----------------------------------------------------------/
G----------------------------------------------------------/
D------------------7--5--4--5-------------------9--7--5--7-/
A-7--7-7-7-7-7-7---5--3--2--3----7--7-7-7-7-7---7--5--3--5-/
E-5--5-5-5-5-5-5-----------------5--5-5-5-5-5--------------/

E-----------------------/
B-----------------------/
G-----------------------/
D-----------------5--7--/
A-3--3-3-3-3-3-3--3--5--/
E-1--1-1-1-1-1-1--------/

A                          G
Donde, donde guardamos nuestra capacidad
F                              A
De emocionarnos con vos esos silencios
     A                F
Nose como ni cuando solos o acompañados
G                     A
Siempre están ahí esperándonos
   G                     F      G
El rostro que se mantiene en el tiempo


A                  F
Ciertas emociones, ciertas emociones
A                   G           F
Ciertas emociones baratas de pantalla
A                 F
Cietas emociones, ciertas emociones
A                   G          F
Ciertas emociones baratas nos atrapan


RIFF X 2

A                  G
El recuerdo está estacionado
F                        A
Ese que solo existe en algún lugar
A              F
En tu cabeza solos o acompañados
G                     A
Siempre están ahí esperándonos
   G                     F      G
El rostro que se mantiene en el tiempo

A                  F
Ciertas emociones, ciertas emociones
A                   G           F
Ciertas emociones baratas de pantalla
A                 F
Cietas emociones, ciertas emociones
A                   G          F
Ciertas emociones baratas nos atrapan

A           G             A       G
Emoción que huele a caos, como la miel salvaje
F  G               A
No me hacen sentir vivo

A (FINAL)
Suggest correction
Give kudos to tab author, rate the tab!
1 2 3 4 5
comments
print report bad tab
guest
You may want to rate the tab now too:
select rating
Wanna post a correction for this tab? Suggest correction