Oops, an error
Loading. Please wait.

Hacelo Vos Mismo Tab

28 views 1 this week
no commentswrite comment
1 2 3 4 5
3 more votes to show rating
add to favorites
launch autoscroll
font size
0
reset
how to read this tab
guitar tuner
×
Best way to learn
"Hacelo Vos Mismo"
Autoscroll
slow
fast
+/-
esc
set tempo
stop
Bueno dejo los acordes del himno del punk rock, hacelo vos mismo...
con sus respectivos punteos

B= Bend
r= Release
s= Slide


Empieza con el bajo

A|--5--4------4--7---
E|-------7-5---------

D     A      G
 Hacelo Vos mismo
D     A      G
 Hacelo Vos mismo

F#-B-G-D-A-G x 2

F#         B
 En este cuento
G          A
 se trata de crecer
F#         B
 en este cuento
G          A
 encontrá tu lugar

sueño con revuelta
sueño con acción
sueño con tus besos
y tu descontrol

Hacelo vos mismo
Hacelo vos mismo

(Durante este parrafo se toca el punteo #1)
B
No lo leas
      A
No lo veas
G
No lo escuches
       A
No lo creas más

F#-B-G-D-A-G x 2

F#         B
 En este cuento
G          A
 se trata de crecer
F#         B
 en este cuento
G          A
 encontrá tu lugar

sueño con revuelta
sueño con acción
sueño con tus besos
y tu descontrol

Hacelo vos mismo
Hacelo vos mismo

(punteo #1)
B
No lo leas
      A
No lo veas
G
No lo escuches
       A
No lo creas más

(punteo #2, sobre base D-A)

(Y aca va con los acordes del estribillo o el punteo #3)

Hacelo Vos mismo
Hacelo Vos mismo
Hacelo vos mismo
Hacelo vos mismo

(punteo #4)

Punteo #1

e|---------------------------------------
B|---------------------------8-----10----
G|---7---7---7-9-6--------4s7---6s9------
D|-9---9---9-------9--7------------------


Punteo #2

e|------------------------------------
B|--7-6---7-6--9-7-6---7-6-9----------
G|------9------------9----------------

Punteo #3

e|-----------------10-----8--------
B|--9b-9br-7---7-9b--9r-7----------      x2
G|----------9----------------------

Punteo #4

B|------------------------------------
G|-6-----7-6---9-7-6-7----------------
D|---9-7-----9------------------------


FIN

Salú y espero ke lo disfruten
Suggest correction
Give kudos to tab author, rate the tab!
1 2 3 4 5
comments
print report bad tab
guest
You may want to rate the tab now too:
select rating
Wanna post a correction for this tab? Suggest correction