Oops, an error
Loading. Please wait.

Mugre Y Furia Chords

10 views 1 this week
no commentswrite comment
1 2 3 4 5
3 more votes to show rating
add to favorites
launch autoscroll
font size
0
reset
transpose
0
reset
display chords
guitar tuner
Autoscroll
slow
fast
+/-
esc
set tempo
stop
Help us to improve Ultimate-Guitar.com Take our survey!
×
PUNTEO I, SOBRE LA BASE: G / A / C-D / G

E-----------------------------------------
B-----------------------------------------
G-7-5-4---5-----------7-5-4---5-----------
D-------7----2-2-2-2--------7----5-5-5-5--
A-----------------------------------------
E-----------------------------------------

E-----------------------------------------
B-----------------------------------------
G-----------------------------------------
D-4-4-7-9--7----5--5----------------------
A-----------------------------------------
E-----------------------------------------

     G          E                      C
La felicidad del juego no la quiero disfrutar solo yo
        A            D              G
Y tengo la puta sensación de que lo mejor ya pasó
     G              E                A
Solo queda mirar el paso de los dias iguales
     C                   D             G
Pero tengo unas cuantas ideas que escribir

  G              A                        C
Vivir mirando al frente, morir mirando al frente
         D             G
Es la verdad que nunca existió

      C  D                  G
Oh oh oh solo queda mugre y furia
      C  D                  G
Oh oh oh solo queda mugre y furia
      C                       D
Oh oh oh también un pequeño detalle
C          D               G         E
No puede morir lo que ya está lo que ya murio
A          E             C
No puede morir lo que ya se murió
   D            G
La mugre y la furia
PUNTEO I


     G          E                      C
La felicidad del juego no la quiero disfrutar solo yo
        A            D              G
Y tengo la puta sensación de que lo mejor ya pasó
     G              E                A
Solo queda mirar el paso de los dias iguales
     C                   D             G
Pero tengo unas cuantas ideas que escribir

  G              A                        C
Vivir mirando al frente, morir mirando al frente
         D             G
Es la verdad que nunca existió

      C  D                  G
Oh oh oh solo queda mugre y furia
      C  D                  G
Oh oh oh solo queda mugre y furia
      C                       D
Oh oh oh también un pequeño detalle
C          D               G         E
No puede morir lo que ya está lo que ya murio
A                        E
No puede morir lo que ya se murió
   C            D
La mugre y la furia


PUNTEO II, SOBRE LA BASE: G / E / A / D /

E------------------------------------------------
B------------------------------------------------
G------------------------------------------------
D---------------2-4-2--2-4-2-5--9-9-9-7-5-4--2-0-
A-2--5-2-5-2-5-----------------------------------
E------------------------------------------------

   E                                       D
La mugre y la furia no no puede morirse no no no
   E                                       D
La mugre y la furia no no puede morirse no no no
   C              D            G
No puede morir la mugre y la furia
Suggest correction
Give kudos to tab author, rate the tab!
1 2 3 4 5
comments
print report bad tab
guest
You may want to rate the tab now too:
select rating
Wanna post a correction for this tab? Suggest correction