Oops, an error
Loading. Please wait.

Nostalgia Chords

19 views 1 this week
no commentswrite comment
1 2 3 4 5
3 more votes to show rating
add to favorites
launch autoscroll
font size
0
reset
transpose
0
reset
simplify chords
display chords
guitar tuner
×
Best way to learn
"Nostalgia"
Autoscroll
slow
fast
+/-
esc
set tempo
stop
NOSTALGIA

PUNTEO
                 D5             E5              F#5
E--------------------------------------------------------
B--------------------------------------------------------
G--------------------------------------------------------
D--------------------------------------------------------
A--------------7--5-----5--7--9--------------7-----------
E--5--7--8--5--------------------7--7-7-7-7-----7-7--9---

                  D5         E5                    F#5
E--------------------------------------------------------------
B--------------------------------------------------------------
G--------------------------------------------------------------
D--------------------------------------------------------------
A--------------7--5--4---------------------------7-------------
E--2--4--5--2-----------7--5--7------7---7-7-7-7---7-7--9--9---


D                      F#
Aunque estás solo tu deseas encerrarte
E*
temes decir que es lo que querés
D
Peor no hay nadie allí
F#                       E*
Nostalgia a pesar de las risas
D                 F#
que necesitan de imágenes
                E
nostalgia de lo que pudo ser

   F#                   D       E*
Nostalgia nostalgia que no se celebra
   F#                   D           E*
Nostalgia nostalgia que desafia los días
   F#                   D       E*
Nostalgia nostalgia que no se celebra
   F#                   D           E*
Nostalgia nostalgia que desafia los días


PUNTEO

D                      F#
Aunque estás solo tu deseas encerrare en el
E*
puedes decir que es lo que querés
D
Peor no hay nadie allí
F#                       E*
Nostalgia a pesar de las risas
D                 F#
que necesitan de imágenes
                E
nostalgia de lo que pudo ser

   F#                   D       E*
Nostalgia nostalgia que no se celebra
   F#                   D           E*
Nostalgia nostalgia que desafia los días
   F#                   D       E*
Nostalgia nostalgia que no se celebra
   F#                   D           E*   F#
Nostalgia nostalgia que desafia los días


   B                     E       A
De lo que pudo ser la nostalgia, no no no no

F#         E     D          E*
Que te acompaña, que te acompaña
F#         E       D  E*
Que te acompaña, o no no
F#         E     D          E*
Que te acompaña, que te acompaña
F#         E       D  E*
Que te acompaña, o no no...


Los E que tienen un asterisco son en la quinta y
el resto en la sexta.
Suggest correction
Give kudos to tab author, rate the tab!
1 2 3 4 5
comments
print report bad tab
guest
You may want to rate the tab now too:
select rating
Wanna post a correction for this tab? Suggest correction