Oops, an error
Loading. Please wait.

Lo Que Me Quedó Chords

version 1
version 1

Whole song

83 views 1 this week
no commentswrite comment
1 2 3 4 5
3 more votes to show rating
add to favorites
launch autoscroll
font size
0
reset
transpose
0
reset
simplify chords
display chords
guitar tuner
×
Best way to learn
"Lo Que Me Quedó"
Autoscroll
slow
fast
+/-
esc
set tempo
stop
Esta canción seria la segunda que monto
una excelente letra espero que les guste
por ahí dejo mi Twitter para que me dejen
comentarios si esta bien o si le pueden
agregar algo a la canción pues estaré agradecido
Tw:@EdwardHoyos10


Cejilla 1er traste

      C                  F    C       Csus

e ---------------4----4---2-------------4-4--
b ------4----6--------6---2------4---6----4--
g ---6----6-----------6---3----6---6------6--
D ------------------------4---------------6--
A ------------------------4---------------4--
E ------------------------2---------------4--

(1)
Csus              F                    Csus
Un vacío con tu forma dentro de mi alma,
                G                               Csus
y con ésta tres canciones, más las que están por venir.
                  F                              Csus
Resignarme a ser testigo de tu vida a la distancia,
                 G                        Am7
y guardarme la certeza que te puedo hacer feliz.
        F             Dm7                  G
Poco y tanto me quedó, poco y tanto me quedó.

?Coro?
Csus
Lo que me quedó de tu amor hoy me quema y me duele,
G
me quedó de tu amor más de un beso pendiente,
F                         Am7
me quedó el sin sabor de entregarme y nunca recibirte.
Csus
Me quedó de tu amor una ida sin vuelta,
G
me quedó el corazón sin ninguna respuesta,
F                        Am7                      Csus
me quedó el sinsabor de entregarme y nunca recibirte.

Intro

      C                  F    C       Csus

e ---------------4----4---2-------------4-4--
b ------4----6--------6---2------4---6----4--
g ---6----6-----------6---3----6---6------6--
D ------------------------4---------------6--
A ------------------------4---------------4--
E ------------------------2---------------4--

(1)
Una lista interminable de oraciones inconclusas,
y un deseo incontrolable de arrancarte de un tirón.
Es injusto que tu cargues siempre con toda la culpa.
Yo también tuve mi parte, pero el verso lo hago yo.
Poco y tanto me quedó, poco y tanto me quedó.

?Coro?
Lo que me quedó de tu amor hoy me quema y me duele,
me quedó de tu amor más de un beso pendiente,
me quedó el sin sabor de entregarme y nunca recibirte.
Me quedó de tu amor una ida sin vuelta,
me quedó el corazón sin ninguna respuesta,
F                         Am7                      G
me quedó el sin sabor de entregarme y nunca recibirte.

                  Am7
Fue un placer equivocarme,
F                       G
sin dudar lo intentaría otra vez.

?Coro?
Lo que me quedó de tu amor hoy me quema y me duele,
me quedó de tu amor más de un beso pendiente,
me quedó el sin sabor de entregarme y nunca recibirte.
Me quedó de tu amor una ida sin vuelta,
me quedó el corazón sin ninguna respuesta,
me quedó el sin sabor de entregarme y nunca recibirte.

      C                  F    C       Csus

e ---------------4----4---2-------------4-4--
b ------4----6--------6---2------4---6----4--
g ---6----6-----------6---3----6---6------6--
D ------------------------4---------------6--
A ------------------------4---------------4--
E ------------------------2---------------4--


Csus 446644 o 032013
G    466544 o 320033
Suggest correction
Give kudos to tab author, rate the tab!
1 2 3 4 5
comments
print report bad tab
guest
You may want to rate the tab now too:
select rating
Wanna post a correction for this tab? Suggest correction