Oops, an error
Loading. Please wait.

Y Si Te Quedas Qué? Tab

163 views 1 this week
no commentswrite comment
1 2 3 4 5
3 more votes to show rating
add to favorites
launch autoscroll
font size
0
reset
how to read this tab
guitar tuner
Autoscroll
slow
fast
+/-
esc
set tempo
stop
Help us to improve Ultimate-Guitar.com Take our survey!
×
Como no encontre una buena versión, les entrego esta.
Espero que les guste el tema de este Colombiano (Santiago Cruz).
Cualquier duda o comentario a 

Intro

Este es el duo de piano y guitarra en la entrada de la canción.
Los Acordes estan bien

PIANO
E||---------------------------||
B||-------14-15-14------------||
G||-14-16----------14---------||
D||---------------------------||
A||---------------------------||
E||---------------------------||
GUITARRA
E||---------------------0-----||
B||-----------------------0---||
G||-------------------2-----2-||
D||---------------------------||
A||-------------------0-------||
E||---------------------------||


PIANO
E||----------------17--------------12-----------------12-------17-||
B||-------14-15-14--------------12-10---------9-10-12----12----15-||
G||-14-16--------------------------------9-11------------------14-||
D||------------------------------------------------------------16-||
A||---------------------------------------------------------------||
E||---------------------12-10-9-----------------------------------||
GUITARRA
E||------------------------0-----------------------------------0--||
B||---------------------0--------------------------------------0--||
G||-------------------2----------------------------------------1--||
D||-------------------2----------------------------------------2--||
A||------------------------------------------------------------2--||
E||------------------------------------------------------------0--||


E            Asus2                                                   Bm7
Sé que estas cansada que has tenido un día largo y quieres apagar el mundo
               E                                     Asus2
Sé que todo el día he contado las horas para tenerte cerca
                 F#                                   Bm7
Sé que a veces piensas que has equivocado pasos en tu vida
                D     Dsus2        Dm6                Asus2
Sé que a veces pienso que si no te tengo para que mas pasos
       G                  Bm7                    Esus4      E       E7
Sé que quiero que seas lo primero que vea cuando abra mis ojos


CORO

        Asus2                     C#m7
Y si te quedas esta noche y si me abrazas en la cama
         D                    Bm
y si encaramos por fin tantas ganas
              G                   Esus4
de ser los testigos de nuestras mañanas
E         Asus2                   C#m7
Yo por mi parte estoy dispuesto a desnudarte el pensamiento
           D            Bm                   G                 Esus4
a ser colono de cada rincón ser tu roca y tu bien, tu final y comienzo
        F#m7         Asus2   D   Dsus2   Dm6
Y si te quedas esta noche
               Asus2
y si te quedas qué?


Intro   (Repite intro)


E                 Asus2                                   Bm7
Cuando cruces la puerta deja atrás tus dudas y tus remordimientos
            E                                   Asus2
Para que pensar si somos el capricho de lo que sentimos
               F#                                    Bm7
Cuando te despiertes y me veas sonriendo va a tener sentido
                D     Dsus2        Dm6                  Asus2
Todo el tiempo ido que he desperdiciado antes de estar contigo
      G                  Bm7                   Esus4     E       E7
Solo quiero que seas lo primero que vea cuando abra mis ojos


CORO...
...
        F#m7         Asus2   D   Dsus2   Dm6
Y si te quedas esta noche
               Asus2   C#m7
y si te quedas qué?
                F#m7   E
y si te exploro qué?
          Asus2  D    Asus2
y si te entiendo qué?
               G       Esus4   E   E7
y si te siento qué?


CORO...
...

FINAL

        F#m7                 Esus4   E
Y si te quedas esta noche
               Asus2
y si te quedas qué?

Asus2     Esus4     Aadd9    (En esta linea no toquen la 1er cuerda)


                     Asus2    (Termina con un rasgueo hacia arriba)
y si te quedas...   ...qué?


     Asus2    Esus4    Aadd9    Dsus2     Dm6
E||----0--------O--------0--------0--------1------||
B||----0--------0--------0--------3--------0------||
G||----2--------2--------2--------2--------2------||
D||----2--------2--------2--------0--------0------||
A||----0--------2--------4--------0--------0------||
E||----0--------0--------0--------X--------X------||


Cualquier duda o comentario a 
Suggest correction
Give kudos to tab author, rate the tab!
1 2 3 4 5
comments
print report bad tab
guest
You may want to rate the tab now too:
select rating
Wanna post a correction for this tab? Suggest correction