Oops, an error
Loading. Please wait.

Advertencia Ii Tab

25 views 3 this week
no commentswrite comment
1 2 3 4 5
3 more votes to show rating
add to favorites
×
Save as Personal and add changes to this tab that will be seen only by you. Learn more ›
×
You can save this tab as Personal to edit and correct it or add notes. All changes will be seen only by you. Learn more »
save as personal
new!
launch autoscroll
font size
0
reset
how to read this tab
guitar tuner
Autoscroll
slow
fast
+/-
esc
set tempo
stop
En realidad el tema se llama Angel II, perdon por el error.

D  +--------------------0---0-----------------0-------------+
A  |--------0---------4---4-----------0-----4---------------|
G  |------0---------0---------------0---0-------------------|
D  |----4---------4---------------4-------4-----4-4-4-----4-|
A  |--5---------5---------------5-----------------------5---|
D  +0-------0-0-------0-------0-------0---------0-----0-----+


D  +------0---0-------------------------------0-------------+
A  |--0-4---4-------0---0---0---------0-----4-------0-------|
G  |0-------------0---4---0---------0-------------0---------|
D  |------------4---------------4-4-----2-------4---------4-|
A  |--------2-----------------5-----------4-------------5---|
D  +--0---------------5-----0-------------------0-----0-----+


D  +------0-4-------2-----------0-------------0-------------+
A  |--0-4-----2---2---2-----------0~2-0---0-----0-----0-----|
G  |0-----------2-------2---2-----0-----0---------3---------|
D  |--------------- 5-----5---4-------------4-------5---4-4-|
A  |--------2-----------------5-------------5 ----------5---|
D  +--0---------------------0-------------------------0-----+


D  +----------4---------2---------------0-------------------+
A  |--0-------------0-----0-----0-0-2~4---4---0---0-----0---|
G  |0-------------0-----------0-------------4---4---0-------|
D  |----2-------4-----------2-----------4-------5-----4---2-|
A  |------4-----------4-----------------2-------5-----------|
D  +--------0-------------------------------------------0---+


D  +------0--0-------0-----0---------0- 2-4-----------------+
A  |--------4------4---4-----4-----4--------5-----5 --5 ----|
G  |-------------4-------4-----2--- ----------0-----------0 |
D  |-----------4-----------0-----2--------------4-------5 --|
A  |4/5-4----2--------------------------------------7 ----1 |
D  +----0-----------------------------------------5---------+


D  +--0 ----------------------------------------------------+
A  |------------0-2-0-----0-------0-----------0-------------|
G  |----0 ----0---------0---0---0-----0-2---0-----------0-2-|
D  |2 ----4 2 --------5-------4-----4---4-4-------0-2-4-----|
A  |----------------4-------------------3-------------------|
D  +------0 ----------------0-----------1-------2-----------+


D  +------------------------------------------------0---0-4-+
A  |----------0---------0---------------0---------4---4-----|
G  |4~2---- 0 --------0---0-----------0---------0-----------|
D  |----- 2---------4-------4-------4---------4-------------|
A  |----4---------7-----------7---5---------5---------------|
D  +------------8---------------0-------0-0---------------0-+


D  +------2---------------0---------------------------0---0-+
A  |----0---0-----0-0-2~4---4---0---0-----0-------------4---|
G  |--0---------0-------------4---4---0-----------0---------|
D  |4---------2-------------------5-----4---2-4/5---4-------|
A  |------4---------------2-------------------------------2-|
D  +--------------------------------------0-------0---------+


D  +------0-----0---------0-2-2/4-------5-----------0-------+
A  |----4---4-----4-----4---------5---------5---------------|
G  |--4-------4-----2---------------0-----------0-----0-----|
D  |4-----------------2---------------4-------5---------4-2-|
A  |------------0-------------------------7-------7---------|
D  +--------------------------0---------5-------8-------0---+


D  +---------------------------------------------2----------+
A  |--0-2-0-----0-------0------------------------------0----|
G  |0---------0---0---0-----0-2----------0-2-4~2-----0------|
D  |--------5-------4-----4---4------2-4-----------2--------|
A  |------4-------------------3----2-----------------------7|
D  +--------------0-----------1--2-----------------------8--+


D  +----0---0-----------------0-4-------------5---------5-5-+
A  |------------------0-----0-----0---0---------0---0-------|
G  |--0---6---------0-----0---------5-------6-----6---6-----|
D  |4-------------4-----4-------4---------5---------------7-|
A  |------------5-----------------------5-------------------|
D  +----------0-------0---------------0---------------------+


D  +------5-------7---0-----------0-------------------------+
A  |5---5-------5---5-----------0---0-----------------------|
G  |--6-------6---------------0-------0---------------0-2-4~|
D  |--------7---------------4-----------2---------2-4-------|
A  |------5---------------7---------------4-----2-----------|
D  +--------------4---8-8-------------------5-2-------------+


D  +--2---------------0---0----------Arm 12---0-------------+
A  |--------0-----------------------------------0-----------|
G  |2-----0---------0---6-------------------------0---------|
D  |----2---------4---------------------------------4-------|
A  |------------7------------- -----------------------5-----|
D  +----------8--------------Arm 12---------------------0---+


~: Ligado
/: Arrastrado
Suggest correction
Give kudos to tab author, rate the tab!
1 2 3 4 5
comments
print report bad tab
guest
Wanna post a correction for this tab? Suggest correction