Oops, an error
Loading. Please wait.

Apocalipsis Del Alma Tab

29 views 1 this week
no commentswrite comment
1 2 3 4 5
3 more votes to show rating
add to favorites
launch autoscroll
font size
0
reset
how to read this tab
guitar tuner
×
Best way to learn
"Apocalipsis Del Alma"
Autoscroll
slow
fast
+/-
esc
set tempo
stop
Este tema esta tocado con la afinacion en SOL
(DE 6ª a 1ª: DGDGBD)
Nombré a los acordes de la manera tradicional
Lo cual no se si es correcto;
Tampoco creo les importe.
De todos modos aclaré las posiciones
En cada caso.

 Noe, nunca tantas imágenes tuyas en una canción...

Intro:

E  +0-0-0-0--------------0---0-----------0---0--------------+
B  |0~1-0-0-------0~3- 2-2---1-----------1 0-0--------------|
G  |0-0-0-0-----0--------0---0-------0---0---0--------------|
D  |0~2-0-2---2----------2---------0---------0--------------|
A  |0-0-0-4-4----------2-2-3---3~4-----3---0-0--------------|
E  +------2-------------------------------------------------+


E  +0-0---0~2-2-2~0-0------0---Arm12--0 0-------------------+
B  |0~1---1---1-1---1------0---Arm12--0~1-------------------|
G  |0-0---0---0-0---0--0-0-0---Arm12--0-0-------------------|
D  |0~2---2---2-2---2--2/3 0----------0~2-------------------|
A  |0-0---0---0-0---0--2/3-0----------0-0-------------------|
E  +--------------------------------------------------------+


                      G  G4                     Em Arreglo 1 A7
Tú eres mi amor aprendido  Mi presa libre y mi vida
                   G4                (V-1)      G   G4
Mi pesadilla enterrada Mi forma de hallarte conmigo
Eres paciencia asembrada Mi decisión sin pensarlo
Un caso perdido y suicida Un angel colmando mi vida
                       G  G4                      Em  A7
Tu eres lo que me traspasa  Lo que me aparta de nuevo
                  G4 Em                    G4
La situación engañosa  De la mentira y el miedo
                       Arreglo 2 G4                    Em  A7
El despertar de mi rosa     El prescindir de la duda
                   G4  A7/4          A7         G4
La trasparente bandera    Que me asencilla las cosas
                      Bm   G4                   Em
Tu eres lo que no te sabes   Salto de azul esperanza
                    G4  Em                 G4
Guerra vencida con calma   Apocalipsis del alma
                        G4                   Em   A7
Salvoconducto sagrado      Resurreccion fascinada
             G4  Em                 G4
Iluminada salida   Revolución de mi vida
                          G4                      Em   A7
Que de tan tuya eres mia     De tantas noches con nadie
                 G4 A7/4             A7    G4
Eres tan de todavia   Como la tarde y las calles
                    Bm    G4                  Em  A7
Eres por lo que no faltas   Eres amor porque huyes
                    G4  A7/4             A7      G4
Por tanta nada que pides   Eres por lo que tu quieres
                         G
Eres lo que en mi para siempre.

   Arreglo 1
E  +--------------------------------------------------------+
B  |------0~3-2---------------------------------------------|
G  |----0---------------------------------------------------|
D  |--2-----------------------------------------------------|
A  |4- -------2---------------------------------------------|
E  + -------------------------------------------------------+

   Arreglo 2
E  +------0-------------------------------------------------+
B  |0-0-0-0-------------------------------------------------|
G  |0-0-0-0-------------------------------------------------|
D  |0-2~3-0-------------------------------------------------|
A  |0-2~3-0-------------------------------------------------|
E  +--------------------------------------------------------+


~: Ligado.

         DGDGBD
G:       X00000
G4:      X02010
Em:      242000
A7:      X22020
A7/4:    X22030
Bm:      044400
Suggest correction
Give kudos to tab author, rate the tab!
1 2 3 4 5
comments
print report bad tab
guest
You may want to rate the tab now too:
select rating
Wanna post a correction for this tab? Suggest correction