Oops, an error
Loading. Please wait.

Ayer Y Hoy Enamorado Tab

48 views 1 this week
no commentswrite comment
1 2 3 4 5
3 more votes to show rating
add to favorites
launch autoscroll
font size
0
reset
how to read this tab
guitar tuner
Autoscroll
slow
fast
+/-
esc
set tempo
stop
Este es todo el arpegio del tema solo tienen que
Cantarle encima.
Aca estan intercaladas las tablaturas
Con los versos correspondientes.

Pasea redonda la noche, pasea vagabunda y muda
Y las palomas no se juntan y las luciernagas no hablan

E  +--------6-------6-----6--5 ------5-------------------3--+
B  |----4-------4-------4--------3-------3-----------3-----3|
G  |--7---7---7---7---7--------5---5---5---5-----3-----3----|
D  |5-------5-------5--------4-------4-------------5--------|
A  |-------------------------------------------5------------|
E  +-----------------------------------------3--------------+


E  +--------------------------------------------------------+
B  |-------------------------------------------------1------|
G  |3-------0---0-----0-0-----0-0-----0------0-----2-------3|
D  |--5-------3-----3-------3-------3------1-----3- -----3--|
A  |------5-------5-------3-------3-------1------ -----1----|
E  +----6-------6-------4-------4-------1------1------------+


E  +--------------------------------------------------------+
B  |--3-----------------------------------------------------|
G  |------3-------------------------------------------------|
D  |3---3---3-----------------------------------------------|
A  |--------------------------------------------------------|
E  +--------------------------------------------------------+

Es triste tiempo de nevadas aunque no caiga ni una escarcha
Temblando van los corazones desamparados en el aire.

Las calles son leones devorando portales
Desalojando el sueño
Despidiendolo del mundo.


  Y allí esta el enamorado pidiendole a la esperanza
  Que su pecho no se inunde con el llanto de su tiempo.
E  +--------1-------1---------------1-----------------------+
B  |------------------3---------------1--------------8------|
G  |----3-------3-------3-------2-------2--------8-------8--|
D  |--3---3---3---3-------3---3---3-------3----8---8---8---8|
A  |1-------1-------1------------------------6-------6------|
E  +-------- ---------------1-------1-----------------------+


E  +------------------1-------------------------------------+
B  |--8-----8-----------3-------------8-------8-----8-------|
G  |----8---------3-------3-------8-------8-----8---------3-|
D  |------8-----3---3-------3---8---8---8---8-----8-----3---|
A  |----------1-------1-------6-------6---------------1-----|
E  +--------------------------------------------------------+


E  +----------------------------------3---------------------+
B  |--1-------------1-------------3-----3-------------------|
G  |----3-------2-----2-------3-----3-----3-----------------|
D  |3-----3---3---3-----3-------5-----------5---------------|
A  |--1---------------------5-------------------------------|
E  +--------1-------1-----3---------------------------------+

Pasean las noches de enero vagabundas y alegres
Se juntas todas las palomas
Parecemos luciernagas.

Y allí esta el enamorado con su luna entre los brazos
Pidiendole a la esperanza para todos, para todos.

Final:

Y aquí esta el enamorado con su luna entre los brazos
Pidiendole a la esperanza para todos, para todos.

E  +------------------1-------------------------------------+
B  |--------------------3-------------8-------8-----8-------|
G  |--------------1-------3-------8-------8-----8---------3-|
D  |------------3---3-------3---8---8---8---8-----8-----3---|
A  |----------1-------1-------6-------6---------------1-----|
E  +Y aquí está---------------------------------------------+


E  +--1-----------------------------------------------------+
B  |----3-------------8------8-----8-----------1------------|
G  |------3-------8-------8----8-----------3-----3-------2--|
D  |3-------3---8---8---8--8-----8-------3---3-----3---3---3|
A  |--1-------6-------6----------------1-------1------------|
E  +-------------------------------------------------1------+


E  +------------------3----------6-------6-----6-5-----5----+
B  |1-------------3-----3------------4-------5-------3------|
G  |--2- -----3-----3-----3------ -7---7---7-------5--------|
D  |----3-------5-----------5--5---------5-------4----------|
A  |--------5-----------------------------------------------|
E  +1-----3-------------------------------------------------+


E  +--------------------------------------------------------+
B  |-- 3----------------------------------------------------|
G  |-----3--------------------------------------------------|
D  |Gm-----5------------------------------------------------|
A  |--------------------------------------------------------|
E  +--------------------------------------------------------+
Suggest correction
Give kudos to tab author, rate the tab!
1 2 3 4 5
comments
print report bad tab
guest
Wanna post a correction for this tab? Suggest correction