Oops, an error
Loading. Please wait.

Batallas Sobre Mi Tab

17 views 1 this week
no commentswrite comment
1 2 3 4 5
3 more votes to show rating
add to favorites
launch autoscroll
font size
0
reset
how to read this tab
guitar tuner
×
Best way to learn
"Batallas Sobre Mi"
Autoscroll
slow
fast
+/-
esc
set tempo
stop
Intro:
E  +-------------------------- 0---0----5~0-----0-------3~0-+
B  |----------------0-0-0-0--------2----------6---6---0- ---|
G  |--------0-----0-0~2-0-2------2-3--------7--------- -----|
D  |------2-----0- -0~2-0-2--------2--0---------------------|
A  |0~2 3------- ---0-0-0-0--0-----0------------------------|
E  +----------3-------------------------------------3-------+


E  +--------------1--2-2-2-2-0-----------------------------0+
B  |0-----------0-0--2-2-2-2-0-------------------0-0-0-0----|
G  |--0-------0------4-4-4-4-2-----------0-----0-0~2-0-2----|
D  |--------0--------4 4-4-4-2---------2-----0---0~2-0-2----|
A  |------2----------2-2-2-2-0---0~2-3-----------0-0-0-0-0--|
E  +----3------------2-2-2-2---------------3----------------+


E  +--0-5~0-------0---------3-3--2-2-2-2-0--0-------0-0-----+
B  |--2-----6---6---6-----0---0--2-2-2-2-0--1-----1---1-----|
G  |2-3-------7---------0-----0--4-4-4-4-2--2---2-----2---2-|
D  |--2-0---------------------0--4-4-4-4-2--3-4-------4-----|
A  |--0-----------------------2--2-2-2-2-0--0---------------|
E  +------------------3-------3--2-2-2-2----------------1---+


E  +--0-0---------------------------------------------------+
B  |1---1---------------------------------------------------|
G  |----2---------------------------------------------------|
D  |--------------------------------------------------------|
A  |--------------------------------------------------------|
E  +--------------------------------------------------------+

~: Ligado

                             Am/F#                 G
Se le caen los dientes a mi barba y solo doy a la luz
 F# G    A    E           Am     F                   Am C
Cancio - o - nes comprometidas, texto, música, nada más
                          G    Am
Blancas, blancas mis canciones
          C             Esus4  E
Trotan, trotan de ansiedad
 F    G                  C         Am
Buscan  la guitarra de sueños y caricias
 D         G
Buscan tu beso por el mar.

 C         G     A                  Dm7 G
Ven que estoy aquí,   creo que es así
Texto, música sin tí
    Bb              Am
Me sabe a batallas sobre mí
Ven que estoy aquí, creo que es así
Texto, música sin tí
Me sabe a batallas sobre mí

F                    Am/F#
  Batallas de sólo escudo para mí
             G
Y flechas de mí hacia mí
        C          G              Am
Luego llanto, más tarde papel y cuerdas
        F   D        G
Y resultado   sólo mierda

Ven que estoy aquí, creo que es así
Texto, música sin tí
Me sabe a batallas sobre mí
Ven que estoy aquí, creo que es así
Texto, música sin tí
Me sabe a batallas sobre mí.

F                              Am/F#                 G
  Se le caen los dientes a mi barba y solo doy a la luz
     F#  F    E           Am     F                   F/E
Cancio - o - nes comprometidas, texto, música, nada más.

Am/F# F x 4 Am/F# G A9

         EADGBE

Am/F#:   X04210
Dm7:     XX0211
Bb:      X13331
F/E:     033210
A9:      X02200
Suggest correction
Give kudos to tab author, rate the tab!
1 2 3 4 5
comments
print report bad tab
guest
You may want to rate the tab now too:
select rating
Wanna post a correction for this tab? Suggest correction