Oops, an error
Loading. Please wait.

De Escudo Tab

21 views 1 this week
no commentswrite comment
1 2 3 4 5
3 more votes to show rating
add to favorites
launch autoscroll
font size
0
reset
how to read this tab
guitar tuner
Autoscroll
slow
fast
+/-
esc
set tempo
stop
Help us to improve Ultimate-Guitar.com Take our survey!
×
Intro

E  +--------------------------------------------------------+
B  |--------------------------------------------------------|
G  |---------0-------0---------------------0-----------0----|
D  |-------0---0---0---0-----(x 2)-------------------0---0--|
A  |-----9-------9------- 9-------------10---10----9-------9|
E  +-3/10 ---------------------------11---------10----------+


E  +--------------------------------------------------------+
B  |-----------------------------------------0---0-----0---0|
G  |--------0-------------0-------0--------5---5-----5---5--|
D  |0-----0---0---0-----0---0---0---0----7---------7--------|
A  |----7-------7-----5-------5------- 0---------0---------5|
E  +--8-------------7---------------------------------------+


E  +--------------------------------------------------------+
B  |--------------------------------------------------------|
G  |2---2---2---2---0-------0-------0~2-2---2~0---0---0---0-|
D  |--5---5---5---5---4---4---4---3-------3-----3---3---3---|
A  |----5---5---5---5---5-------5-------5---3-----3---3---3-|
E  +--------------------------------------------------------+


E  +--------------------------------------------------------+
B  |----------------------0-------0-------------------------|
G  |------------------------0-------0-----0~2-2---2~0---0---|
D  |3-3-3-2-0---0~2-0---------5---------3-------3-0---3---3-|
A  |----------3---------5-------5-----5-------5---------3---|
E  +------------------3-------------------------------------+


E  +--------------------------------------------------------+
B  |----1-------------1---------------------------0---------|
G  |2-----2-------0-----0---------------------0-----0-------|
D  |--3-------0~2---2-----2~0-------------------0-----------|
A  |--------3---------3-------3-2~0---------2---------------|
E  +--------------------------------3-0~2-3-----------------+


~: Ligado.
/: Arrastrado

Toquen con la melodía de la intro, salvo donde estan
los siguientes acordes:


De escudo quiero el corazon desnudo
Volverme sabio para divertirme
           C                        G
Buscarte siempre y no perderte siempre
           C                         G  Arreglo
Sentir sintiendo para no entenderlo?más.

Reir eterno de la enferma duda
Salvar el miedo para estar mas cerca
De recordar para olvidar de nuevo
                                         G G4/7  Am
Que es mas que cierto y no verdad? o mentira.
                                    G F
Yo soy las cosas no el rompecabezas
                            C     Dm
Una canción oxigenando el tiempo
            C                        Dm
Otro suicida celador del sentimiento
                 C             G
Un vagabundo cantador?sin puerto

Baila conmigo solo hay una fiesta
Somos estatuas olvidadas de mañana
Dame un abrazo y no tengamos frío
Dame otro abrazo y no tengamos frío.

           EADGBE
G4/7+:     355422

Si a alguien le interesan mas temas de Santi me avisan,
Espero saquen este temaso.
Pabloendomayor@
Suggest correction
Give kudos to tab author, rate the tab!
1 2 3 4 5
comments
print report bad tab
guest
You may want to rate the tab now too:
select rating
Wanna post a correction for this tab? Suggest correction