Oops, an error
Loading. Please wait.

Esta Mañana tab

23 views 3 this week
no commentswrite comment
1 2 3 4 5
3 more votes to show rating
add to favorites
×
Save as Personal and add changes to this tab that will be seen only by you. Learn more ›
×
You can save this tab as Personal to edit and correct it or add notes. All changes will be seen only by you. Learn more »
launch autoscroll
font size
0
reset
how to read this tab
guitar tuner
edit
Autoscroll
slow
fast
+/-
esc
set tempo
stop
Intro:

E  +--------------------------------------------------------+
B  |-----------------------------------------0-----0---0----|
G  |0-----0----0-----0---0-----0---0-----0--- ---2---------2|
D  |----4----------4---------4---------4-------1-----1---1--|
A  |--5-----5----5-----5---3-----3---3-----3-3---------3----|
E  +3----------3- -------2---------2------------------------+


E  +-------------------------0-----------0------------------+
B  |0-------0---------0------------0-----------0-----0-----0|
G  |----0-----0---0-----0--------0---0-------0---0-------0--|
D  |--1---4-----4---4-----4----2-------2---2-------2---2----|
A  |-------------------------------------------------0------|
E  +----3---------3----------0-----------0------------------+


E  +--------------0-----------------------------------------+
B  |----0-----0---------1---3---3---3-----3-----0~1---1-----|
G  |0------ 0---------0-----------0-----0---0-------------0-|
D  |--2---2-----2---2-----2---2-2-----0-------0-----0---0---|
A  |----0---------3---------3-------------------------------|
E  +---- ---------------------------3-----------3-----3-----+


E  +--------------------------------------------------------+
B  |1-0-----0---0-----0-------------------------------------|
G  |------0---------0---------------------------------------|
D  |----0-----0---0-----0-----------------------------------|
A  |--------------------------------------------------------|
E  +--3---------3-------------------------------------------+

Toda la tablatura es casi tal cual la toca Santi. La letra esta
intercalada con la tablatura correspondiente y para que se
guien en los cambios puse las notas (solo los bajos, no el
acorde)
sobre la letra tambien.
   G                          F#                       C
    De dormir viene la noche descansada y trasnochada
   despertando en la
E  +--------------------------------------------------------+
B  |----------------------------------------0-----0---0-----|
G  |0-----0---0-----0---0-----0---0-----0-------2---------2-|
D  |----4---------4---------4---------4-------1-----1---1---|
A  |--5-----5---5-----5---3-----3---3-----3-3---------3-----|
E  +3---------3---------2---------2-------------------------+
                 G
    mañana ganas de seguir...
E  +--------------------------------------------------------+
B  |0---------0-----------0---------------------------------|
G  |----0---0---0---0---0-----------------------------------|
D  |--1---4-------4---4-----4-------------------------------|
A  |--------------------------------------------------------|
E  +----3-----------3---------------------------------------+

Repite con: Salto de las sábanas al pálido rocío en un
fantástico
bostezo de café
      E                       A           C         G
    y en los ojos de mi hijo nace otra manera de saber
E  +3---3---3-------------------0---------------------------+
B  |--------------0---0-----0---------1---0-----0-----0-----|
G  |--0---0-----0---0-----0---------0---0-----0---0-------0-|
D  |----------2---------2-----2---2---------4-------4---4---|
A  |------------------0---------3---------------------------|
E  +0---0---0-----------------------------3-----------3-----+
         A                        C               G
 del fracaso y la alegría y lo demás en cada, en cada amanecer.
E  +--------------------------0-----0-----------------------+
B  |0---0-----0-----0-----0-------3-----3-3-----3---0~1---1-|
G  |--------0---0-------0-------0-----0-------0-------------|
D  |--4---2-------2---2-----2---------------0-----0-----0---|
A  |----0-----------0---------3-----3-----------------------|
E  +---- ---------------------------------3---------3-----3-+

E  +--------------------------------------------------------+
B  |----1-0-------------------------------------------------|
G  |--0-------0---------------------------------------------|
D  |0-------0-----------------------------------------------|
A  |--------------------------------------------------------|
E  +------3-------------------------------------------------+

     G                                  F#                C
    Déjate encontrar el modo, desde el sol de tu ventana vístete
E  +--------------------------------------------------------+
B  |----------------------------------------0-----0---0-----|
G  |0-----0---0-----0---0-----0---0-----0-------2---------2-|
D  |----4---------4---------4---------4-------1-----1---1---|
A  |--5-----5---5-----5---3-----3---3-----3-3---------3-----|
E  +3---------3---------2---------2-------------------------+
                 G
de abrazos y de fe
E  +--------------------------------------------------------+
B  |0---------0-----------0---------------------------------|
G  |----0---0---0---0---0-----------------------------------|
D  |--1---4-------4---4-----4-------------------------------|
A  |--------------------------------------------------------|
E  +----3-----------3---------------------------------------+

Repite con: El amor y la cordura, el sonido de la gente, agitada
y sonriente como tú.
    E                          A       C                  G
   Limpia el parabrisas de tu cara, sacude, invade tu persona.
E  +3---3---3-------------------------------0---------------+
B  |--------------0---0-----0-----0-------3---0---0-0-------|
G  |--0---0-----0---0-----0---0-----0---0-------3-----0---0-|
D  |----------2---------2-------2-----------------------0---|
A  |------------------0-----------0---3-------3-------------|
E  +0---0---0---------------------------------------3-------+
          A                          C                    G
      Hay alquien que te espera hay tanto que te encontrarás.
E  +----------------------------0-----0---0-----------------+
B  |0-----0-----0-----0-----0-------3---3---3-----3-----0~1-|
G  |----0-----0---0-------0-------0-------------0---0-------|
D  |--0-----2-------2---2-----2---------------0-------0-----|
A  |------0-----------0---------3-----3---3-----------------|
E  +3---------------------------------------3-----------3---+


E  +--------------------------------------------------------+
B  |--1-----1-0-----0---0-----0-----------------------------|
G  |------0-------0---------0-------------------------------|
D  |0---0-------0-----0---0-----0---------------------------|
A  |--------------------------------------------------------|
E  +--3-------3---------3-----------------------------------+

        C        C              B         A
Esta mañana de nuevo piensa en tí, y asustada de futuro
E  +0-----0---2-----2---------------------------------------+
B  |----1---1-----3---3-3-----3---3-----3---0-----0-----0---|
G  |--0---------2-----------0---0-----0---0-----0---0-------|
D  |----------------------4---------4---------2-------2---2-|
A  |3---------3---------2---------2---------0-----------0---|
E  +--------------------------------------------------------+
       C                 G
   se desborda de pasado, resistiendo.
E  +------0-----0-------------------------------------------+
B  |--0-------3-----3-3-----3-----0~1---1-----1-0-----0---0-|
G  |0-------0-----0-------0---0-------------0-------0-------|
D  |----2---------------0-------0-----0---0-------0-----0---|
A  |------3-----3-------------------------------------------|
E  +------------------3-----------3-----3-------3---------3-+


E  +--------------------------------------------------------+
B  |----0---------------------------------------------------|
G  |--0-----------------------------------------------------|
D  |0-----0-------------------------------------------------|
A  |--------------------------------------------------------|
E  +--------------------------------------------------------+


De la mano van los días desalmados y suicidas del terror y la
felicidad,
vienen desde siempre conquistando  una mañana sin soledad.
Sea esta mañana más sublime, más temprana, más posible que
mañanas
del ayer,sea tuya siempre esta mañana, sea para comenzar.
Esta mañana de nuevo piensa en tí, y asustada de futuro se
desborda
de pasado,resisitiendo, resistiéndose a morir...

  Aca Santi se acompaña además con una armónica o cuando esta
acompañado por Elmer Ferrer, éste toca la melodía sobre los
arpegios
de Santi. Yo me tome el atrevimiento de juntar todo eso y
hacer un
pequeño arreglo que suena, me parece, bastante bien.

E  +--0-2-3-----0-2-3-----0---------------------------0-2-3-+
B  |3---------3---------3-------------3-----3---3---3-------|
G  |--------0---------0-----2~0-2-0-2-----0---0-------------|
D  |------------------------1-----------0---------0---------|
A  |2-----3---------2-------3-------3---------------2-----3-|
E  +----------------------------------3---------3-----------+


E  +----7-3-----0---------------------0-----0---------------+
B  |--3-------3---0-----0---0-----0-------3-----0---0-0-----|
G  |0-------0---------0---------0-------0-----0---3-----0---|
D  |----------------2-----2---2-----2---------------------0-|
A  |------2-------0---------0---------3---------3-----------|
E  +--------------------------------------------------3-----+


E  +--------------------------------------------------------+
B  |--0~1---1-----1-0-----0---0-----0-----------------------|
G  |0-----------0-------0---------0-------------------------|
D  |------0---0-------0-----0---0-----0---------------------|
A  |--------------------------------------------------------|
E  +--3-----3-------3---------3-----------------------------+

   El final es sobre estas dos posiciones y arpegios, solo
tienen que ubicarlos.


 G                  G           G             G
De dormir viene la noche descansada y trasnochada
E  +--------------------------------------------------------+
B  |--------------------0---------0-------------------------|
G  |0-----0---0-----0---------0---------0-------------------|
D  |----4---------4---------4-------- 4---------------------|
A  |--5-----5---5-----5---5-----5-- 5-----5-----------------|
E  +3---------3---------3---------3-------------------------+
       F#             F#           G
   despertando en la mañana    ganas de seguir...
E  +--------------------------------------------------------+
B  |--------------------0---------0-------------------------|
G  |0-----0---0-----0---------0---------0-------------------|
D  |----4---------4---------4---------4---------------------|
A  |--3-----3---3-----3---3-----3---3-----3-----------------|
E  +2---------2---------2---------2-------------------------+

            
            
Suggest correction
Creating personal tab
Creating personal tab
You can edit any tab online and save it as your Personal.

You can edit, replace or remove any tab part or add personal notes – all changes will be seen only by you.

Personal tabs can be accessed anytime from any device, even offline.
Learn more »
Give kudos to tab author, rate the tab!
1 2 3 4 5
comments
print report bad tab
guest
Wanna post a correction for this tab? Suggest correction