Oops, an error
Loading. Please wait.

Iceberg Tab

26 views 3 this week
no commentswrite comment
1 2 3 4 5
3 more votes to show rating
add to favorites
launch autoscroll
font size
0
reset
how to read this tab
guitar tuner
Autoscroll
slow
fast
+/-
esc
set tempo
stop
Help us to improve Ultimate-Guitar.com Take our survey!
×
   Bueno gente, este tema es muy complicado de transcribir y la
intención es que lo vayan sacando mejor de lo que acá puedo llegar
a pasarles. La guitarra de Santi esta afinada en Re
(de 6ta a 1ra, DADGAD) y no tengo idea de cómo llamar a los acordes
por lo que les puse número.
   Además de esto el tema tiene acordes imposibles para quienes
tocamos la guitarra al derecho por lo que tuve que hacerle
adaptaciones que me parece suenan bien.
Intro:

~: Ligado
/: Arrastrado

|-------3---0-----------0---------------------0----------------------|
|-----1-------3/2~0---------------0---------------0------------------|
|-0~2-----2-----------0---0~2/3-----------------0----2~0---0---------|
|-------------3/2~0-----------------3~2~0------------3---3---3-2---2-|
|-------------------0-----0~2/3-----------0----------5-----------5---|
|-------------------------------0-----------0------------------------|

|-0--------------5~0-------------0-------0----------|
|-0--------------------0----0-----------------------|
|-0------------------0--------12------10------------|
|-0--------3/5-5---------------------------10/12----|
|-2----------------------12--------10---------------|
|-0?0~2-3------5---------------------------10/12----|


Tu corazón es un iceberg, una manera de soportar
La necedad y el desaire, alma, roca de acero y cristal.

Hasta acá pueden cantar sobre la intro con variaciones que se irán
dando cuenta al tocarla o a medida que se les acostumbre
el oído a lo que suena, ya que es un acompañamiento poco común.

1                                      2  Arreglo1
  Maldita la avalancha de vacío sobre ti?

Nuevamente sobre la Intro

La decepción y el ultraje, iceberg hicieron tu corazón.

Transición

3                   4   5             6   7
  Tu corazón sin idiooomas, desencontrado
        3        4   5 8         6
La latitud sin ahooora,   atemporado
        Arm12   4         9
Una gaviooota vieja escondida
                             10
El desplendor del ansia aburrida
                              Arreglo2
Un solitario mundo sin porque.


Este verso se canta sobre Arreglo3
Tu corazón
      Arm12
es un iceberg
11   12  11        13        14
Alllma,  roca de acero y cristal.

Final

Arreglo 1. La secuencia es ésta, pero es todo rasgueado.
|--------------------------------------|
|--------------------------------------|
|-0-0-0-0-0~0~0-0-0~0-0-0~0~0-0-0~0----|
|-3-3-3-3-3~4~0-0-1~0-0-3~4~0-0-1~0----|
|-3-3-3-3-3~4~0-0-1~0-0-3~4~0-0-1~0----|
|-0-0-0-0-0~0~0-0-0~0-0-0~0~0-0-0~0----|

Transición
|-------------5~0-------------0-------0----------|
|-------------------0----0-----------------------|
|-----------------0--------12------10------------|
|-------3/5-5---------------------------10/12----|
|---------------------12--------10---------------|
|-0~2-3-----5---------------------------10/12----|

|---0------0------0----------0-3-2-0---------0--------|
|-----7------7-----------------------3-----------0----|
|-------10-----10----------------------0-------0------|
|-0-----------------------10-------------5------------|
|----------------------10-----------------------------|
|-------------------10---------------------0----------|

|---------------------------5/7----|
|-------0-2-----------2~3/5--------|
|-----------2-------2--------------|
|-------------5---5----------------|
|----------------------------------|
|-0~2~3---------0---------------0--|

Arreglo2
|-2~3-0----------------------|
|-------2~3-0----------------|
|-2~3-0-------2~3-0----------|
|-------2~3-0-------2~3------|
|-------------2~3-0----------|
|-------------------2~3-1----|

Arreglo3
|----------------------|
|----------------------|
|----------------------|
|-------5-7/8-10/12----|
|----------------------|
|-0~2~3-5-7/8-10/12----|

Acordes:
          DADGAD

1:        030010
2:        0110xx
3:        000980
4:        10 10 10 0 0 0
5:        000000
6:        050020
7:        050200
8:        10 10 12 12 x x
9:        8880xx
10:       3330xx
11:       0532xx
12:       3130xx
13:       0320xx
14:       010000
Suggest correction
Give kudos to tab author, rate the tab!
1 2 3 4 5
comments
print report bad tab
guest
You may want to rate the tab now too:
select rating
Wanna post a correction for this tab? Suggest correction