Oops, an error
Loading. Please wait.

Mi Mujer Está Muy Sensible Tab

11 views 1 this week
no commentswrite comment
1 2 3 4 5
3 more votes to show rating
add to favorites
launch autoscroll
font size
0
reset
how to read this tab
guitar tuner
×
Best way to learn
"Mi Mujer Está Muy Sensible"
Autoscroll
slow
fast
+/-
esc
set tempo
stop
En este temaso Santi juega con el G mas utilizado
(320003) y el G con barra en el tercer traste.
Para diferenciarlos los llamaré G al primero y
G* al segundo. Ademas utiliza el G5 (3550XX).
Esta es la version del disco Feliu en vivo, 2001.

Intro:

E  +--------------------------------------------------------+
B  |--------------------------------------------------------|
G  |------0------0------------------------------------------|
D  |----5--- 5-----5---5--VARIAS VECES-------3~5---Y REPITE-|
A  |--5--------5-----5-------------------3~5----------------|
E  +3--------------------------------------------3----------+


E  +-----------------------------------------------------0--+
B  |--------1-------------------1-----1-1--0-----0---3------|
G  |------0---------------0---------0--------0-----0---0---0|
D  |----2---------3-----0---0-----2------------0------------|
A  |2-3---------3-----2-------2-3--------------------2---3--|
E  +----------1-----3-------------------1- 3----------------+


E  +--0-1-3 ----3 ------------------------------------------+
B  |1---------0 --------------------------------------------|
G  |--------0 ------------0---------------0-----0-----------|
D  |--------------------2---------------5---5-----5---5-----|
A  |--------------0~2-3-----2-0-------5-------5-----5-------|
E  +----1-3---------------------0~2-3-----------------------+

G5
     No eres tú
Es el destornillado cotidiano azar
                              C
La puerta del delirio, la fangosa realidad
                                   G5
Los narcos, la inflación, la solución impar
                              C
Los dioses apagados, la fantasia incapaz
                               G5
Berlin, Fidel, el Papa, Gorbachov y Ala.
         F
No eres tú mi amor.

E  +--------------------------------------------------------+
B  |------0-------------------------------------------------|
G  |----0---------0-----------------------------------------|
D  |0~2---------0-------------------------------------------|
A  |--------0~2---------------------------------------------|
E  +----------------3---------------------------------------+

G5
   No eres tú
Son estos dias de mierda que también se irán
                               C
Son Lennon y Guevara que no quieren regresar
                        G5
Latinos divididos sin América
                             C
Soy yo que no me curo de quererte más

                      G*
Es por los pasaportes    y la enemistad
           F
No es por ti mi amor.

Nuevamente, a quienes vieron mi transcripción de
Noticiero rasgueen sobre estos acordes
Hasta encontrarles un poco de onda.

E  +7--5- 7--3----------------------------------------------+
B  |8--8- 8--3----------------------------------------------|
G  |7--7 -7--0----------------------------------------------|
D  |0 -0--0--0--C--F--G*--F--G*--F--G-----------------------|
A  |--------------------------------------------------------|
E  +--------------------------------------------------------+


No eres tú
                     C9           C C9
Es tanta democracia para no creer
                        G*
Es la canción de Silvio    y la crisis de fe
                C9             C C9
Es la sabiduria   de desaprender
                G*
Es Panamá sin guía agradeciendo a Bush
                    C9                   C C9
Es un amor por Cuba,   es socorrer su luz
                         G*
Es como cuando faltas, cuando faltas tú
         F
No eres tú mi amor.

Arreglo intro termimando G* F G* F G* F G

No eres tú
                          C9               C C9
No eres lo que esta noche me costo inventar
                      G*
Es falta de marcianos,   espor mí aterrizar
                      C9               C C9
Es que me falta cuento  en esta capital
                          G*
Se amarga hasta el romance   y la anarquía crece más
                      C9                       C C9
Es cuerda que se oxida   en esta vena de pensar
               G*
Es musa mal parida, es que no se ni que cantar
         F         F9
No eres tú mi amor
           G* F G* F G* F G
Son los demás.

~: Ligado

           EADGBE

C9:        X31033
F9:        1330XX
Suggest correction
Give kudos to tab author, rate the tab!
1 2 3 4 5
comments
print report bad tab
guest
You may want to rate the tab now too:
select rating
Wanna post a correction for this tab? Suggest correction