Oops, an error
Loading. Please wait.

Noticiero Tab

20 views 1 this week
no commentswrite comment
1 2 3 4 5
3 more votes to show rating
add to favorites
×
Save as Personal and add changes to this tab that will be seen only by you. Learn more ›
×
You can save this tab as Personal to edit and correct it or add notes. All changes will be seen only by you. Learn more »
save as personal
new!
launch autoscroll
font size
0
reset
how to read this tab
guitar tuner
Autoscroll
slow
fast
+/-
esc
set tempo
stop
Intro:
Nota: Aquellas notas que esten separadas
por un espacio simple
deben tocarse casi juntas
es decir un arpegio bien rápido,
ejemplo notas 10,11 y 12 de la intro.

E  + ----------- -------------------------------------------+
B  |--------------------------------------------------------|
G  |2~0---0---------------2~0---0-----------------0---------|
D  |0---3---3-2-0 --3-2-0-0---3---3-2-0-------0-------------|
A  |------3--------3------------3-------3--3---3------------|
E  +--------------1-----3-----------------1-------3---------+

    Dm        C         F        G
Las galias cubanas necesitan poción
A Diego le golearon el alma
¿Qué pasa en la España de la Pasionaria?
Que cree encontrar La Pinta en Europa

Los rojos sangrando no saben que hacer
Se quedan más solos que siempre
Los otros invaden si hay que organizar
Y el dólar desborda tu mente

E  + ----------- -------------------------------------------+
B  |--------------------------------------------------------|
G  |2~0---0---------------2~0---0---------------------------|
D  |0---3---3-2-0 --3-2-0-0---3---3-2-0-------0-------------|
A  |------3--------3------------3-------3--3---3------------|
E  +--------------1-----3-----------------1-----------------+


E  +----------------0---------------------------------------+
B  |--------0-----0--------0--------------------------------|
G  |----0-------0------0---- 0------------------------------|
D  |--4---4---4-------4--4--- -4----------------------------|
A  |2------------------------- --2--------------------------|
E  +-------------------------------0------------------------+

Em7                          C    Bm
    El mundo viene y te despierta
                  D/F#
Sin una noticia buena
       C                      G
No encuentras nada cuerdo que no seas tu
    D/F#               Em7
Buscandote la paz por dentro
     C      Intro
Por dentro

Indios y negros seguiran mas mal
Lo pronostica Escandinavia
Zapata resiste con su batallon
En medio de tanta globalizacion

Y pobres los sueldos pobres esperanzas
El hambre no se aparta del hombre
America en su democraticolonizacion
Aspira a safarse del norte

Y aquí apuntalando historia
Entre socialitzmo o muerte
Buscando en el subsuelo tambien otra opcion
Tentando en el dolor la suerte
LA suerte


Pueden rasguear sobre estos
Acordes esta secuencia que queda
Bastante bien. No es que deben tocarla
Tal cual esta aca, sino rasgueen
Hasta ponerle un poco de onda
A estos acordes...

E  +8-10-8-5-8-7-13-12-10-13-12-10--------------------------+
B  |8-10-8-3-8-8-13-0--10-13-0--10--------------------------|
G  |0-0--0-2-0-7-0--0--0--0--0--0---2~0---0-----------------|
D  |0-0--0-0-0-0-0--0--0--0--0--0--0----3---3-2-0-----0-----|
A  |7-9--7---7------------------------------------3-3---3-2-|
E  +8-10-8---8----------------------------------------------+


E  +--------------------------------------------------------+
B  |--0-----------------------------------------------------|
G  |--0-----------------------------------------------------|
D  |--0-----------------------------------------------------|
A  |--2-----------------------------------------------------|
E  +3-------------------------------------------------------+


Sigue arrasando el demonio sexual
Los peces lanzan S O S
La guerra no deja de ser normal
Y Dios que ahora tampoco aparece


E  + ----------- -------------------------------------------+
B  |--------------------------------------------------------|
G  |2~0---0---------------2~0---0---------------------------|
D  |0---3---3-2-0 --3-2-0-0---3---3-2-0---------------------|
A  |------3--------3------------3-------3---F--G--Dm--------|
E  +--------------1-----3-----------------------------------+

       C      F  G  Dm
Extra, Extra--a--a
           C       F   G Dm
Noticia de última hora
              C       F        G Dm
Promete el futuro portarse bien
         C        F   G
Lalalala lalalala lalaaaa

Final:

E  + ----------- -------------------------------------------+
B  |--------------------------------------------------------|
G  |2~0---0---------------2~0---0---------------------------|
D  |0---3---3-2-0 --3-2-0-0---3---3-2-0-------0----0--------|
A  |------3--------3------------3-------3--3---3--2---------|
E  +--------------1-----3-----------------1-------3---------+

~: Ligado
Suggest correction
Give kudos to tab author, rate the tab!
1 2 3 4 5
comments
print report bad tab
guest
Wanna post a correction for this tab? Suggest correction