Oops, an error
Loading. Please wait.

Para Bárbara Tab

11 views 1 this week
no commentswrite comment
1 2 3 4 5
3 more votes to show rating
add to favorites
launch autoscroll
font size
0
reset
how to read this tab
guitar tuner
×
Best way to learn
"Para Bárbara"
Autoscroll
slow
fast
+/-
esc
set tempo
stop
Esta es la versión que Santi hizo de este tema
En el disco Feliu en vivo, 2001.
Los acordes marcados con este simbolo ?*?
(sin comillas claro) tienen unos pequeños arreglos
cuyas tablaturas estan al final.
Intro:

E  +--------------------------------------------------------+
B  |--------0-------0-------0-------- -------------------0--|
G  |------0-------0-------0--------0---0---0---0---0-------4|
D  |----4-------4-------4--------4---4---4---4---4-----0----|
A  |--3-------3-------3--------3----------------------------|
E  +2-------2-------2-------2------------------------3------+


E  +--------------------------------------------------------+
B  |---0-----0-------0- -0---0-------0----------------------|
G  |-----4-----4----- -5- -5-------0-----5-4-2--------------|
D  |-0-----0-------4------- -----0-------4-----5-4-4~5-4-2--|
A  |-------------5-------5---------------5-----------------5|
E  +---------------------------3-------0-----------0--------+


E  +--------------------------------------------------------+
B  |------------0~1-5---------------------------------------|
G  |--------------------------------------------------------|
D  |--1~0-1---2---------------------------------------------|
A  |3-------3-----------------------------------------------|
E  +----------------0---------------------------------------+


E  +--------------------------------------------------------+
B  |------------------------------0---0---0-------0---------|
G  |----0---0---0-0~2-0-------------5---5-------0-----5-4-2-|
D  |------4---4---------0-------4-------------0-------4-----|
A  |--3-------------------2---5-------5---------------5-----|
E  +2-------2-----3---------3---------------3-------0-------+


E  +--------------------------------2-------0---0-----------+
B  |--------------------------0~1-5---5---4---4-----------0-|
G  |--------------------------------------2-------------0---|
D  |5-4-4~5-4-2-----1~0-1---2-------------4-----------2-----|
A  |------------5-3-------3-------------------------4-------|
E  +----0-------------------------0-----0---------5---------+


E  +0---2---------0-----------------------------------------+
B  |--2---------0--- ---------0-----------------------------|
G  |----------0-----------0---------------------------------|
D  |------------------------4-------------------------------|
A  |------4/6-----------3-----------------------------------|
E  +----------------1/2-------3-----------------------------+


G                     D/F#              Em  Cmaj7/G
   Siento que tus destellos ahogan mi brisa
                  G          D7             Em  C9
Mi brisa que presiento inagotable azul infinita
          G         D/F#       Em   C9
Limpida brisa de lirismo inevitable
           G               D/F#        G*
Soplo de sueños que en mi verso se derrama.

          G           D7     B4/7
Si de mi voz florece la canción
   Em   F#/4*  Arreglo 1
Motivo  de tu dar

Arreglo 1:
E  +0---2-2---2-2---2-2-----2-------------------------------+
B  |2-0-----0-----0-------0---------------------------------|
G  |--------------------0-----------------------------------|
D  |------5-----4-----2-------------------------------------|
A  |--------------------------------------------------------|
E  +--------------------------------------------------------+


          G         C        D* Am9
Si de tus ojos nace   la bondad
                  Em   F          F#/4
De abrirme en el verso   un palpitar
                Arreglo 2
No me dejes ir.

Arreglo 2:
E  +--2---2-2-----2-----2---2---0~2-------------------------+
B  |0---0-------0-----0---0---------------------------------|
G  |----------0---------------0-----------------------------|
D  |--------5-------4-------2-------------------------------|
A  |--------------------------------------------------------|
E  +--------------------------------------------------------+


E  +--------------------------------------------------------+
B  |------------------------------0---0---0-------0---------|
G  |----0---0---0-0-2-0-------------5---5-------0-----5-4-2-|
D  |------4---4---------0-------4-------------0-------4-----|
A  |--3-------------------2---5-------5---------------5-----|
E  +2-------2-----3---------3---------------3-------0-------+


E  +--------------------------------------------------------+
B  |--------------------------0-1-5-------------------------|
G  |--------------------------------------------------------|
D  |5-4-4-5-4-2-----1-0-1---2-------------------------------|
A  |------------5-3-------3---------------------------------|
E  +----0-------------------------0-------------------------+


E  +1-0---0-5-7-----------0---2-----------------------------+
B  |----4--  -----------0---2--------  0------- ---0--------|
G  |----2- -5-7-------0------------  5----- - -0------------|
D  |----4-----------2--------------5------- -----4----------|
A  |--------------4------------4-6-----------3--------------|
E  +------------5------------------------1-2-------3--------+


G                    C9                 G*  C9
  Siento que mis destellos ahogan tu brisa
                 G           C9             Bm(b6) C9
Tú brisa que presiento inagotable azul infinita
          G5        D2  B4/7      Em*   C9
Limpida brisa de lirismo    inevitable
           G               D/F#       Em C9
Soplo de sueños que en mi verso se derrama.

Si de mi voz florece la canción
Motivo de tu dar
Si de tus ojos nace la bondad
De abrirme en el verso un palpitar
             Final
No me dejes ir.

Final:

E  +--2---2-2-----2-----2---2-------------------------------+
B  |0---0-------0-----0---0-----1-0-------------------------|
G  |----------0---------------0---------G-------------------|
D  |--------5-------4-------2-------------------------------|
A  |--------------------------------------------------------|
E  +--------------------------------------------------------+


Arreglos:

Arreglo G:

E  +--------------------------------------------------------+
B  |--------------------------------------------------------|
G  |----4---2---0-------------------------------------------|
D  |--0---0---0---0-----------------------------------------|
A  |--------------------------------------------------------|
E  +3---------------3---------------------------------------+

Arreglo F#/4:

E  +--------------------------------------------------------+
B  |--------0-----------------------------------------------|
G  |3-----3-------------------------------------------------|
D  |----4---------------------------------------------------|
A  |--4-----------------------------------------------------|
E  +2-------2-----------------------------------------------+

Arreglo Em:

E  +--------0-2/3-0-----------------------------------------+
B  |--0-----------------3-----------------------------------|
G  |------0-----------0-------------------------------------|
D  |----2-----------2---------------------------------------|
A  |--------------3-----------------------------------------|
E  +0-------0-----------------------------------------------+

Arreglos D:
    1º                             2º
E  +------0-2-0~2~0---0---------------------2-2~3-5-0-------+
B  |----2-----------2 ------------------2-5-----------------|
G  |--2-------------------------------2---------------------|
D  |0-------0-----------------------0-------0---------------|
A  | -----------------0-----------------------------0 ------|
E  +--------------------------------------------------------+

~: Ligado
/: Arrastrado
          EADGBE                    EADGBE

G:        320003        D/F#        2X0230
Em:       022000        Cmaj7/G:    332000
D7:       X5450X        C9:         X32030
B4/7:     X2120X        F#/4:       24430X
C:        X32010        D:          XX0232
Am7/9:    X05500        F:          133211
Bm(b6)    X24030

Como siempre
Consultas, quejas, sugerencias, pedidos,
Noticias de Santi: pabloendomayor@
Suggest correction
Give kudos to tab author, rate the tab!
1 2 3 4 5
comments
print report bad tab
guest
You may want to rate the tab now too:
select rating
Wanna post a correction for this tab? Suggest correction