Oops, an error
Loading. Please wait.

Para Ti Tab

11 views 1 this week
no commentswrite comment
1 2 3 4 5
3 more votes to show rating
add to favorites
launch autoscroll
font size
0
reset
how to read this tab
guitar tuner
Autoscroll
slow
fast
+/-
esc
set tempo
stop
Intro:

E  +--------------------------------------------------------+
B  |----2---------------------2-----------2 2-2------- -----|
G  |------2-------2-------2---------2-----------2-----1-----|
D  |--4-----4---4-------4---4-----4-----4---------4-------2-|
A  |----------4-------4---------4-------------------4-------|
E  +2---------------2-----------------2-----------------0---+


E  +--------------------------------------------------------+
B  |--0-------0-------2-------2-------2-2-2-------0-------0-|
G  |1---1---1-------2---2-------2-----------2-2---------1---|
D  |------2-------4-------4---------4-----------4-----2-----|
A  |--------------------------------------------------------|
E  +------------2-----------2-----2-----------------0-------+


E  +------------------------------0---------0-----------0---+
B  |--------0-----2 2-2-------2-----------0---------0 ------|
G  |1-----1-----------------2---2-------1-------1~2---2-----|
D  |----2-------4---------4-----------2-------2-------------|
A  |--------------------4---------------------------------0-|
E  +--0-------2---------------------0-----------------------+


E  +------0---------0---0-------0-----0-------0---0-------0-+
B  |----2---------2---2-------3-----3-------3---3-------2---|
G  |--4---------4-----------6-----6-------6-----------4-----|
D  |2---------2---------------------------------------------|
A  |--------0-------------0-------------0-----------0-------|
E  +--------------------------------------------------------+


E  +------------0-----------------0---------0---------0-----+
B  |2-------2-----2-----------0---------0---------0---------|
G  |------4---4-----4-------4---4---------2---------2-------|
D  |----2-------------2---4-----------2---------2-------2/4-|
A  |--0-----------------6-----------4---------4-------------|
E  +--------------------------------------------------------+


E  +----0---0---0---0-----0---------------0-----------------+
B  |--3---3---3---3-----3---2-------2-------2-----------2---|
G  |2-------------------------4---4-----4-----4-----------2-|
D  |----------------------------2-----2---------2-----------|
A  |------------------0-------------------------------4-----|
E  +------------------------------------------------2-------+


F#m                        E    F#m                    E   A9
  No es que quieras y no puedas,   el amor no esta de moda
                      A4                          A9
Son ventanas que por dentro se nos cierran sin remedio
                      B4/D#                 A9/C#
Y nos devuelven ese tiempo donde todo comenzaba
                  D2   D2/F                A9
Y no queda más salida que    llorar y sonreir
         A4                               A9
Para seguir intentando encontrar un porvenir.

Esa lágrima en tu seno son diabluras que hace el miedo
Tu imagínate horizonte, un atardecer en Venus
Y no te creas que no es cierto, la verdad te está pasando
Los guerreros de la vida de tu amor estan cuidando
Y no hay otra fantasía más sagrada que vivir
Para seguir intentando encontrar el porvenir.

Bm                                A9/C#  Bm
   Cuando sube siempre baja la marea
                              A9/C#  Bm
Ilusiones y canciones que se van
                                A9/C#
Sólo tienes lo infinito que te falta
    D2        A9         A4 A9 F#m
Tú libertad, tú sóledad.

¿Qué color tendría el mundo si se te acabara el sueño?
No serías ni la sombra del amor que tienes dentro
No serias ni el misterio de la luz y el desencuentro
Andarías descubierta conel angel sin belleza
Escapando del destino, intentando no existir.

Arreglo:
    Oh oh oh oh oh oh oh oh oh oh
E  +------0---------------3-----------0---------------------+
B  |------2-------2-----2-2-----------3---------------------|
G  |----0-0-----2-----3---3---------4-4---------------------|
D  |--4-------2-----0-------------4-------------------------|
A  |2-------4-------------------2---------------------------|
E  +--------------------------------------------------------+

Siempre sube y siempre baja la marea
Nuevos años que en tu estrella brillarán
Sólo tienes lo infinito que te falta
LA soledad, LA libertad.

No es que quieras y no puedas, el amor no esta de moda
Son ventanas que por dentro se nos cierran sin remedio
Y nos devuelven ese tiempo donde todo comenzaba
Y no queda más salida que llorar y sonreir
Para seguir intentando encontrar un porvenir.

~: Ligado
/: Arrastrado

          EADGBE

F#m:      244222
E:        022100
A9:       X02420
A4:       X0X635
B4/D#:    X64400
A9/C#:    042200
D2:       XX0230
D2/F:     XX3230
Bm/E:     X24430
Suggest correction
Give kudos to tab author, rate the tab!
1 2 3 4 5
comments
print report bad tab
guest
Wanna post a correction for this tab? Suggest correction