Oops, an error
Loading. Please wait.

Reflexiones Y Tú Tab

6 views 1 this week
no commentswrite comment
1 2 3 4 5
3 more votes to show rating
add to favorites
launch autoscroll
font size
0
reset
how to read this tab
guitar tuner
Autoscroll
slow
fast
+/-
esc
set tempo
stop
Help us to improve Ultimate-Guitar.com Take our survey!
×
Intro: Afinación en Re


D  +--3---------------------------------0-------------------+
A  |----1---0---------0-1-------0-----0-------0-----0-------|
G  |------3---0-----0-----2---0-----0-------0-----0---------|
D  |------------2-3---------2-----2-------2-----2-----------|
A  |------------------------------------4---------------0-1-|
D  +0-------0-----------0-----------------------------3-----+


D  +------------------------------------------------1-------+
A  |----0---0-------0---0-------0-----------0---------------|
G  |--0---0---3---3---3-------0---0-------0---0---0-----0---|
D  |0-----------0-----------3-------3---3-------3-----1---1-|
A  |----------------------3-----------3-----3-------3-------|
D  +--------3-----------3-----------------------------------+


D  +----------------------3-------3-----2-0-----0-----0-----+
A  |0---1-----------0-1-----1---1---1-------1-----1-----0---|
G  |------0-------0-----2-----2-------2-------2-----2-----2-|
D  |--1-----1---1-------------------------------------------|
A  |----------3-----------1-------------1-------------------|
D  +--------------------------------------------------------+


D  +--------------------------------------------------------+
A  |------0-----0---0-------0-------0-----------------------|
G  |1---1---1-----1-------0-------0---0---------------------|
D  |--2-------2---------3-------3-------3-------------------|
A  |2-----2-----------7-------7-----------7-----------------|
D  +----------------7-----------------------0---------------+


Reflexiones y tu siempre parte de todo
lo que me habita, vuela y grita, cuanto vive en mí.
La soledad no para de hechizarme
con su sonrisa socarrrona y su perfume gris.

Las razones se ahuecan y agrietan el alma
en una osuridad desnatural,
desilución decapitando encanto

...a partir de aca y hasta el final lo canta con esta otra melodía,
si bien tiene algunas breves variaciones en la ultima estrofa.

D  +5---------5-----5---------------------------------------+
A  |--------5---5-------------0-------0--------0---------0--|
G  |------6-------6---------0-------0---0------0-------0---0|
D  |--  7-----------------3-------3-------3----3-----3------|
A  |--7-----------------7-------7-----------7--3---3--------|
D  +5-----------------7------------------------3-3----------+


D  +----------------------------------------------0-----0---+
A  |------0-------------0-1-------0---1-0-------3---------3-|
G  | -------0---------0---------0---0-----0-----------------|
D  |3- -1-----1-----1---------1-------------1-------3-3-----|
A  |--3---------3-3---------3-----------------1----- -------|
D  +--------------------------------------------------------+


D  +----0---------------0-------0-------0-------0-------0---+
A  |--3-------3---------------------------------------------|
G  |3-------3-------2-------2-------2-------2-------2-------|
D  |------3-------3---3-------3-------3-------3-------3-----|
A  |----1-------2---------2-------2-------2-------2---------|
D  +--------------------------------------------------------+


D  +------0-------0---------1- 0-------0--------------------+
A  |--------6-------------0----------1---------1-----1------|
G  |----5-------5-------0----------0-----0-- 0-----0--------|
D  |--7-------7-------1----------1-------1-2-----2---------3|
A  |6---------------3----------1-----------0-------------7--|
D  +---------------------------------------------------7----+


D  +--------------------------------------------------------+
A  |---0-------0-------0------------------------------------|
G  |-0-------0-------0---0----------------------------------|
D  |-------3-------3----------------------------------------|
A  |-----7-------7------------------------------------------|
D  +--------------------------------------------------------+


por esa mítica felicidad boreal.

No requiero vivir desmedido en inventos
ni convertir rsignando el tiempo
vida para vivir queriendo mas de ti.

Si el amor no es capaz milagroso y desierto
terco y fugaz, un escape abierto
vida para vivir queriendo más de mí.

Intro como final.

                  Tremendo tema!
Suggest correction
Give kudos to tab author, rate the tab!
1 2 3 4 5
comments
print report bad tab
guest
You may want to rate the tab now too:
select rating
Wanna post a correction for this tab? Suggest correction