Oops, an error
Loading. Please wait.

Sedante Tab

11 views 3 this week
no commentswrite comment
1 2 3 4 5
3 more votes to show rating
add to favorites
×
Save as Personal and add changes to this tab that will be seen only by you. Learn more ›
×
You can save this tab as Personal to edit and correct it or add notes. All changes will be seen only by you. Learn more »
save as personal
new!
launch autoscroll
font size
0
reset
how to read this tab
guitar tuner
Autoscroll
slow
fast
+/-
esc
set tempo
stop
Este tema es
bastante dificíl de transcribir y hay
que escucharlo varias veces hasta encontrarle
el ritmo. Una vez que se lo acuerden todo,
empiezen a buscarle la vuelta que me parece
esta bastante bien.
 Esta es una versión en vivo él sólo, sin ese
otro monstruo que es Elmer Ferrer.

Intro:

E  +--------------------------------------------------------+
B  |--3/10-8~10~8-------------------------------------------|
G  |--------------9---------0-------0-5~0---0-----2~0---0~2-|
D  |--------------------7~5-----5~7-------7---5- -2---2-----|
A  |0------------------------------------------- -0---------|
E  +----------------5~0-------7---------------0-------------+


E  +------3~0---0-------------------------------------------+
B  |0-3/5- - -3--- -----------------------------------------|
G  |---------- - - -----------------------------------------|
D  |-------------- --G--Am--G--Am---------------------------|
A  |--------------------------------------------------------|
E  +--------------------------------------------------------+


E  +-------------8~0----------------------------------------+
B  |3/10-10---10-----10-8-----------------------------------|
G  |-----9--9-----------9----------0-------0-5~0---0----2~0-|
D  |-----10-------------10-----7~5-----5~7-------7---5--2---|
A  |0----0----------------------------------------------0---|
E  +-----------------------5~0-------7---------------0------+


E  +------------3~0---0-------------------------------------+
B  |------0-3/5-----3---------------------------------------|
G  |--0~2---------------------------------------------------|
D  |2--------------------- G--Am--G--Am---------------------|
A  |--------------------------------------------------------|
E  +--------------------------------------------------------+


E  +-----------------------------------0--------------------+
B  |--3/10 8~10~8--------------------3-----3-1~3-1-3-1 3/5--|
G  |--------------9--- ---5--------------2-------2-2-2------|
D  |------------------5---5-----7-5--------------2-2-2------|
A  |0-------------------7---8~7-7-5--0-------0--------------|
E  +----------------5-----------5-3-------------------------+


E  +-------------------0--------8---------------------------+
B  |3~1-----1-----3/10-10--8~10-10-10~8---------------------|
G  |----2~0-2----------9---9----9--9-------------- -5-------|
D  |--------2----------10--10-------------5 --7 5~7---7-Am-G|
A  |--------0---  0-----------------------5---7-------------|
E  +--------------------------------------3---5-------------+


E  +--0-----------------------------------------------------+
B  |3--- -3-1~3-1-3-1-3/5-3~1-----1-------------------------|
G  |----2-------2-2-2---------2~0-2-------------------------|
D  |------------2-2-2-------------2-------------------------|
A  |0-------0---------------------0-------------------------|
E  +--------------------------------------------------------+

Es díficil ubicarlo, pero los versos en cursiva son cantados
Sobre este pequeño Riff:
E  +--------------------------------------------------------+
B  |10--8---0---------------0~1-0~1-------------------------|
G  |9---9---12------0---0---0~2-0~2-------------------------|
D  |10--10--10--10--12--10--0~2-0~2-------------------------|
A  |0-- 0-------12--12--10--0-0-0-0-------------------------|
E  +------------12--10--8-----------------------------------+


                                                  Am
  Yo se que estas ahorcado de un hueco negro infinito
De la muerta pasión de la neurona poseída
La palabra te asesina que te importa que no sirva
 F                                             C G C G
Tú quédate, aunque tengas que afilarte el corazón.
                                               Am   F
Yo sé que nadie quiere saber lo que estás sintiendo
                          C G
Prefieren suicidarse sonriendo
                                            Am  F
Las caras son la mascara de un cura, un asesino
                       C           G
Un coro de infelices orando sin camino
       F    F/E                          Am G Am F
Pero quédate, es sólo otra punzada de morir
                      C     G C G F
Es el amor con tanta soledad,
              F/E            Am G Am F
Es otra cicatris de estar aquí,
                    C G C G F                  G
Es descubrirte el miedo       y descubrirte a ti.

E  +-------------------- 0----------------------------------+
B  |-----0-------------0------------------------------------|
G  |---0-----0-------2-----2~0---------0--------------------|
D  |10-----9---5-0~2-----------2~0---2--------G-------------|
A  |-------------------------------3-----2~3----------------|
E  +--------------------------------------------------------+


E  +---------------------0----------------------------------+
B  |-----0-------------0------------------------------------|
G  |---0-----0-------2-----2~0---------0--------------------|
D  |10-----9---5-0~2-----------2~0---2---------G--F--G------|
A  |-------------------------------3-----2~3----------------|
E  +--------------------------------------------------------+


E  +0-0-0---0-0-0---------0---------------------------------+
B  |3-3-1~3-1-3-1 3/5-3~1-1--3/10---------------------------|
G  |2-2-2---2-2-2---------2---------------------------------|
D  |----------------------2---------------------------------|
A  |0---------------------0--0------------------------------|
E  +--------------------------------------------------------+


Yo sé que estas ahorcado de un hueco negro infinito
De la muerta pasión de la neurona poseída,
       F                                         C G
Pero quédate, aunque tengas que afilarte el corazón.

~: Ligado.
/: Arrastrado.

          654321

G:        355433
F/E:      033210
Suggest correction
Give kudos to tab author, rate the tab!
1 2 3 4 5
comments
print report bad tab
guest
Wanna post a correction for this tab? Suggest correction