Oops, an error
Loading. Please wait.

Me Hablan De Tí Bass

8 views 1 this week
no commentswrite comment
1 2 3 4 5
3 more votes to show rating
add to favorites
×
Save as Personal and add changes to this tab that will be seen only by you. Learn more ›
×
You can save this tab as Personal to edit and correct it or add notes. All changes will be seen only by you. Learn more »
save as personal
new!
launch autoscroll
font size
0
reset
guitar tuner
Autoscroll
slow
fast
+/-
esc
set tempo
stop
:Intro:(Guitarra y Sintetizador)
:Estrofa 1:(Guitarra, Sintetizador y Voz)
:Estrofa 1:
El Color de las...

G]:-------------:-------:--------:--------:--------:--------:--------:
D]:------------9:7------:--------:--------:--------:--------:--------:
A]:------0-7-9--:-------:3-------:5-------:3-------:5-------:3-------:
E]:-------------:-------:--------:--------:--------:--------:--------:

Son la fuerza...

G]:-------------:-------------:------------:-------------:
D]:-------------:-------------:------------:-------------:
A]:-------------:-------------:------------:-------------:
E]:3------------:1------------:3-----------:1------------:

:Coro:

Mira las aves...

G]:-------------:-------------:------------:-------------:
D]:-------------:-------------:------------:-------------:
A]:------3-----3:-------------:------------:-------------:
E]:-------------:------3-----3:------5----5:-----1------1:

Los lirios...

G]:-------------:-------------:------------:-------------:
D]:-------------:-------------:------------:-------------:
A]:------3-----3:-------------:------------:-------------:
E]:-------------:------3-----3:------5----5:-----1------1:

Se muestran las...

G]:-------------:-------------:------------:-------------:
D]:-------------:-------------:------------:-------------:
A]:------3-----3:-------------:------------:-------------:
E]:-------------:------3-----3:------5----5:-----1------1:

Fresca es la...

G]:-------------:-------------:------------:-------------:
D]:-------------:-------------:------------:-------------:
A]:------3-----3:-------------:------------:-------------:
E]:-------------:------3-----3:------5----5:1------------:

:Estrofa 2:

Una guerra de...

G]:---------------:---------------:---------------:----------------:
D]:---------------:---------------:---------------:----------------:
A]:5----5---5-?5--:3----3---3----3:5----5---5?5---:3--------3-----3:
E]:---5---5------5:---3---3----5--:---5---5------5:---3---3-----5--:

Una abrazo...

G]:---------------:---------------:
D]:---------------:---------------:
A]:5----5---5-?5--:3----3---3----3:
E]:---5---5------5:---3---3-------:

Una tregua...

G]:-------------:-------------:------------:-------------:
D]:-------------:----------2-3:------------:-------------:
A]:-------------:-------------:------------:-------------:
E]:3-3-----3-3--:1-1---1-1----:3-3----3-3--:1------------:

:Coro:

Mira las aves...

G]:-------------:-------------:------------:-------------:
D]:-------------:-------------:------------:-------------:
A]:3-----3-3----:-------------:------------:-------------:
E]:-------------:3------3-3---:5-----5-5---:1------1-1---:

Los lirios del...

G]:-------------:-------------:------------:-------------:
D]:-------------:-------------:------------:-------------:
A]:3-----3-3----:-------------:------------:-------------:
E]:-------------:3------3-3---:5-----5-5---:1------1-1---:

Se muestran...

G]:-------------:-------------:------------:-------------:
D]:-------------:-------------:------------:-------------:
A]:3-----3-3----:-------------:------------:-------------:
E]:-------------:3------3-3---:5-----5-5---:1------1-1---:

Fresca es la...

G]:-------------:-------------:------------:-------------:
D]:-------------:-------------:------------:-------------:
A]:3-----3-3----:-------------:------------:-------------:
E]:-------------:3------3-3---:5-----5-5---:1------------:

:Intermedio:(Solo de Guitarra)

G]:-------------:-------------:------------:-------------:
D]:-------------:-------------:------------:-------------:
A]:-------------:2------2-2---:------------:2------2-2---:
E]:2-----2-2----:-------------:2-----2-2---:-------------:

G]:-------------:-------------:------------:-------------:
D]:-------------:-------------:------------:-------------:
A]:-------------:2------2-2---:7-----7-7---:-------------:
E]:2-----2-2----:-------------:------------:5------5-5---:

:Coro:(Sube un Tono)

G]:-------------:-------------:------------:-------------:
D]:-------------:-------------:------------:-------------:
A]:5-----5-5----:-------------:------------:-------------: (x7)
E]:-------------:5------5-5---:7-----7-7---:3------3-3---:

G]:-------------:-------------:------------:-------------:
D]:-------------:-------------:------------:-------------:
A]:5------------:-------------:------------:-------------: (x1)
E]:-------------:5------------:7-----------:3------------:

:Final:

Amor... oh, oh!!!

G]:-------------:
D]:-------------:
A]:5------------:
E]:-------------:


Dios toda la Naturaleza me habla de ti y de aquella persona
q va a ser mi compañera Fiel
Te amo Dios!!!
Suggest correction
Give kudos to tab author, rate the tab!
1 2 3 4 5
comments
print report bad tab
guest
Wanna post a correction for this tab? Suggest correction