Oops, an error
Loading. Please wait.

Sé Tab

version 1
version 1

Whole song

16 views 1 this week
no commentswrite comment
1 2 3 4 5
3 more votes to show rating
add to favorites
launch autoscroll
font size
0
reset
how to read this tab
guitar tuner
Autoscroll
slow
fast
+/-
esc
set tempo
stop
Help us to improve Ultimate-Guitar.com Take our survey!
×
Sé
Rodrigo Silva Y Marcela Gándara
Live
INTRO: E ///E-A/// C#m7-Asus2-Bsus-A
E--------------------------------|---------------------|
B--------------------------------|--10-9---------------|
G----6-s9-8----------------------|-------9-------------|
D-----------9----9h11------------|----------9-9p11-----|
A--------------11----11---11-9-7-|---------------------|
E--------------------------------|---------------------|
                                             |esto es rápido|
E--------------------------------|-------------12p11-----------------|
B--------------------------------|--s9-10-12--------12-10p9-10--9----|
G----6-s9-8----------------------|---------------------------------9-|
D-----------9----9h11------------|-----------------------------------|
A--------------11----11---11-9-7-|-----------------------------------|
E--------------------------------|-----------------------------------|
  E
Sé dónde debo estar

Contigo mano a mano
      Asus2             A
Caminando en la ciudad
  E
No te puedo negar
                    Asus2      A
Te he necesitado ya no puedo más.
E-------------------------------|-------------------------------|
B---4h5-5--4h5-5--4h5--4h5-5-s7-|-4h5-5--4h5-5--4h5--4h5-4-s5---|
G--4---4-44---4-44---44---4-----|-4---4-44---4-44---44----------|
D-------------------------------|-------------------------------|
A-------------------------------|-------------------------------|
E-------------------------------|-------------------------------|

E-------------------------------|
B---4h5-5--4h5-5--4h5--4h5-5-s7-|
G--4---4-44---4-44---44---4-----|
D-------------------------------|
A-------------------------------|
E-------------------------------|
C#m7
Hago una pregunta
        Asus2    Bsus
Ya de antemano sé
C#7
Que hay una respuesta
         Asus2    Bsus
Que no quiero ver

C#m7
Tanto darle vueltas

    Asus               Bsus
Caigo en la misma respuesta.

Coro:
 E E/F#      E E/F#    C#m7
//Y sigo mirando   la solución en mi interior
Asus2           A
Y no me iré alejando
    Bsus
A ti me iré acercando//
 E                                     E/F#
Sé llegar a ti, tú presencia no he buscado
    Asus2            A
No comprendo mi vivir
 E                   E/F#
Sé que siempre me has amado
 E                   E/F#
Hasta hoy me has perdonado.

C#m7                    Asus2          Bsus
Tanto que he buscado una excusa más
C#m7                    Asus2          Bsus
Tanto que he tratado de justificar
C#m7                    Asus2          Bsus
Hoy ir a tu lado hoy voy a pelear
C#m7                    Asus2          Bsus
Antes no he luchado y estoy cansado.

      |acorde E|                 |acorde A|             |acorde E|
E-----------------------------|--------------------|-----------------|
B-----------------------------|-----------------9--|-----12-------12-|
G-----------------------------|-----9---------9----|-9--------9------|
D-------9-----------------9---|-s11--11---9-11-----|---9--------9----|
A---s11--11--11-9-----s11--11-|--------------------|-----------------|
E-----------------12----------|--------------------|-----------------|

   |acorde Cm#|          |acorde A|  |acorde B|
E-----------------------|----------|-----------|
B--------12-------12----|----------|-----------|
G-----8-9-------8-9-----|-8-9------|-9-8-s11---|
D-----------------------|-----s11--|-----------|
A-----------------------|----------|-----------|
E-----------------------|----------|-----------|
Suggest correction
Give kudos to tab author, rate the tab!
1 2 3 4 5
comments
print report bad tab
guest
You may want to rate the tab now too:
select rating
Wanna post a correction for this tab? Suggest correction