Oops, an error
Loading. Please wait.

Sé Tab

version 2
version 2

Whole song

11 views 1 this week
no commentswrite comment
1 2 3 4 5
3 more votes to show rating
add to favorites
launch autoscroll
font size
0
reset
how to read this tab
guitar tuner
Autoscroll
slow
fast
+/-
esc
set tempo
stop
Help us to improve Ultimate-Guitar.com Take our survey!
×
iremos paso a paso empezando por el fondo

INTRO (parte 1)fondo
notas: E, A (esto lo da el sintetizador)
ahora entra la guitarra con overdrive
haciendo como un slide con varias cuerdas

INTRO (parte 2) guitarra acordes
notas: Cm7#, Asus2, Bsus2, Asus2
en esta parte son solo golpes...
asi que no creo q necesiten más ayuda con este segmento
van los acordes...

Cm#7
E--------4------|
B--------5------|
G--------4------|
D--------6------|
A--------4------|
E--------x------|

Asus2
E--------0------|
B--------0------|
G--------2------|
D--------2------|
A--------0------|
E--------x------|

Bsus2
E--------2------|
B--------2------|
G--------4------|
D--------4------|
A--------2------|
E--------x------|

INTRO (parte 3)guitarra solo
aki el fondo es como la parte 1: E, A pero dos veces

E--------------------------------|---------------------|
B--------------------------------|--10-9---------------|
G----6-s9-8----------------------|-------9-------------|
D-----------9----9h11------------|----------9-9p11-----|
A--------------11----11---11-9-7-|---------------------|
E--------------------------------|---------------------|
                                             |esta parte es rápida!!|
E--------------------------------|-------------12p11-----------------|
B--------------------------------|--s9-10-12--------12-10p9-10--9----|
G----6-s9-8----------------------|---------------------------------9-|
D-----------9----9h11------------|-----------------------------------|
A--------------11----11---11-9-7-|-----------------------------------|
E--------------------------------|-----------------------------------|

--Aki empiezan a cantar (VERSO 1)--
E
SE DONDE DEBO ESTAR CONTIGO MANO A MANO
     Asus2
CAMINANDO EN LA CIUDAD
E
NO TE PUEDO NEGAR TE HE NECESITADO
Asus2
YA NO PUEDO MAS

--en la siguiente seccion (PRECORO) la guitarra hace una figura--

E-------------------------------|-------------------------------|
B---4h5-5--4h5-5--4h5--4h5-5-s7-|-4h5-5--4h5-5--4h5--4h5-4-s5---|
G--4---4-44---4-44---44---4-----|-4---4-44---4-44---44----------|
D-------------------------------|-------------------------------|
A-------------------------------|-------------------------------|
E-------------------------------|-------------------------------|

E-------------------------------|
B---4h5-5--4h5-5--4h5--4h5-5-s7-|
G--4---4-44---4-44---44---4-----|
D-------------------------------|
A-------------------------------|
E-------------------------------|
*nota: esta figura se hace como si fuera un palm mute suave.
la cuerda G es la que menos resalta...
*Tip: posen el borde de su palma hasta la cuerda G
y dejen libre la cuerda B
con la práctica lograrán hacerla bien.. =)

(PRECORO)
F#m                        Bsus2
HAGO UNA PREGUNTA Y DE ANTEMANO SE
F#m                          Bsus2
QUE HAY UNA RESPUESTA QUE NO QUIERO VER
F#m                         Bsus2
TANTO DARLE VUELTAS CAIGO EN LA MISMA RESPUESTA

-- CORO :el acorde que toca la guitarra es E pero en la siguiente posición

Esus2
E--------2------|
B--------5------|
G--------4------|
D--------2------|
A--------x------|
E--------x------|

CORO :
Esus2
Y SIGO MIRANDO

--- analicemos esta sección--

 *la guitarra toca la siguiente figura:

E--------11---------------|-------12-----|
B--s9-10----9--9h10p9-----|-s9-10----9---|
G--------------------11-9-|--------------|
D-------------------------|--------------|
A-------------------------|--------------|
E-------------------------|--------------|

  C#m
LA SOLUCION EN MI INTERIOR

----aki es un acorde---

Asus2
E--------7------|
B--------10------|
G--------9------|
D--------7------|
A--------7------|
E--------x------|

Asus2
NO ME IRE ALEJANDO


---aki es un acorde la primera vez y en la siguiente es una figura---

Bsus2
E--------9------|
B--------12-----|
G--------11-----|
D--------9------|
A--------9------|
E--------x------|
*figura*

E-------------------|
B--------------9----|
G---------9-11---9--|
D----9-11-----------|
A-------------------|
E-------------------|

 Bsus2
A TI ME IRE ACERCANDO

--VERSO 2
E
SE LLEGAR A TI TU PRESENCIA NO HE BUSCADO
       Asus2
NO COMPRENDO MI VIVIR
*FIGURA*
E-----------------------------|
B-----------------------------|
G---------9-11s13p11--9p10-9--|
D----9-11---------------------|
A-----------------------------|
E-----------------------------|
E
SE QUE SIEMPRE ME HAS AMADO HASTA HOY ME HAS PERDONADO
    Asus2
QUIERO CORRER A TI
*figura*
E--------------------|
B--------------------|
G--------------------|
D--------9--s11-9----|
A---9p11-------------|
E--------------------|

---lo siguiente es igual al precoro anterior---
TANTO QUE HE BUSCADO UNA ESCUSA MAS
TANTO QUE HE TRATADO DE JUSTIFICAR
POR IR A TU LADO
HOY VOY A PELEAR
ANTES NO HE LUCHADO
Y YA ESTOY CANSADO
--coro--
--Solo de guitarra--
      |acorde E|                 |acorde A|           | acorde E|
E-----------------------------|--------------------|-----------------|
B-----------------------------|-----------------9--|-----12-------12-|
G-----------------------------|-----9---------9----|-9--------9------|
D-------9-----------------9---|-s11--11---9-11-----|---9--------9----|
A---s11--11--11-9-----s11--11-|--------------------|-----------------|
E-----------------12----------|--------------------|-----------------|

   |acorde Cm#|          |acorde A|  |acorde B|
E-----------------------|----------|-----------|
B--------12-------12----|----------|-----------|
G-----8-9-------8-9-----|-8-9------|-9-8-s11---|
D-----------------------|-----s11--|-----------|
A-----------------------|----------|-----------|
E-----------------------|----------|-----------|
--- ahora se repite la parte 2 y 3 de la intro----

bendiciones!!! espero que lo cheken bien y sea de provecho... =)!!!
Suggest correction
Give kudos to tab author, rate the tab!
1 2 3 4 5
comments
print report bad tab
guest
You may want to rate the tab now too:
select rating
Wanna post a correction for this tab? Suggest correction