Oops, an error
Loading. Please wait.

Si Tu No Estás Tab

27 views 1 this week
no commentswrite comment
1 2 3 4 5
3 more votes to show rating
add to favorites
launch autoscroll
font size
0
reset
how to read this tab
guitar tuner
Autoscroll
slow
fast
+/-
esc
set tempo
stop
Help us to improve Ultimate-Guitar.com Take our survey!
×
C                              F
si Tu no estas, me falta el aire

Am              G                      C (F)
falta la luna que brilla en la obscuridad.

C                         F
Regresaras, que no me faltes

Am                      G
es la oracion que aqui llevo.


(coro)

                     C
Ya quiero que regreses aqui a mi lado

                  Am
que nos vayamos a ese lugar lejano

               F
a ese cielo nuevo que hemos soñado

                G
que no me separe de Ti.

                C
que el tiempo y la distancia hayan terminado

                      Am
que aquello que planeaste sea realizado

                   F
que no nos preocupemos mas del pasado

                 G
y que estemos juntos al fin.


C                        F
sueño mirar un dia Tu rostro

Am                G              C(F)
y una sonrisa que me asegure de Ti.

C                           F
Si tu no estas pierdo la calma

Am                     G                C,C,F,F,Am,Am,C,C,F,F,C,C
Siento que olvido el sabor de la felicidad


(coro)

Solo

E -------------------------------------------------------------
A -------------------------------------------------------------
D -------------------------------------------------------------
G ----17-16-14-12-10-12/---------------------------------------
B -------------------------------------------------------------
E -------------------------------------------------------------


E -------------------------------------------------------------
A -------------------------------------------------------------
D -------------------------------------------------------------
G ----17-16-14-(12)--------------------------------------------
B -------------------------------------------------------------
E -------------------------------------------------------------


E -------------------------------------------------------------
A -------------------------------------------------------------
D -------------------------------------------------------------
G ----17-16-14-12-10-12/---------------------------------------
B -------------------------------------------------------------
E -------------------------------------------------------------


E -------------------------------------------------------------
A -------------------------------------------------------------
D -------------------------------------------------------------
G ----17-16-12-------------------------------------------------
B -------------------------------------------------------------
E -------------------------------------------------------------

(coro)


y repites el solo


Gracias A Dios por las bendiciones y los problemas recibidos,
 me han hecho crecer
como ser humano, Saludos a la gente de agua prieta, y del lirio
Suggest correction
Give kudos to tab author, rate the tab!
1 2 3 4 5
comments
print report bad tab
guest
You may want to rate the tab now too:
select rating
Wanna post a correction for this tab? Suggest correction