Oops, an error
Loading. Please wait.

Vivir Por Tí Tab

version 2
version 2

Whole song

14 views 1 this week
no commentswrite comment
1 2 3 4 5
3 more votes to show rating
add to favorites
launch autoscroll
font size
0
reset
how to read this tab
guitar tuner
Autoscroll
slow
fast
+/-
esc
set tempo
stop
Help us to improve Ultimate-Guitar.com Take our survey!
×
Hola a todos, esta canción es muy linda, comienza con acústico,
la guitarra eléctrica con sonido RIFF se escucha muy bien.


            A                D             A               D
e ---------7s9--9-9-9s7-7-5---------------7s9--9-9-9-10-10s12---
B ---10s12------------------5s7-----10s12---------------------7-
G -9------------------------------9-----------------------------
D --------------------------------------------------------------
A --------------------------------------------------------------
E --------------------------------------------------------------

A                                D   SE ESCUCHA MEJOR CON ESTE D
Miles de páginas escritas hasta hoy
A                               D     E ---2--   --0--
en un relato donde ha sucedido todo   B ---3--   --3--
A                                D    G ---2-- O --2--
sin compreder como lleguè hasta ti    D ---4--   --4--
A                            D        A ---5--   --5--
y casi desvaneciendome en tus ojos    E ------   -----

             CORO_:
    A                    D          A           D
Te miro y lo vuelvo a intentar por mi tu estas ahi.


A                                 D
tiempo y distancia han quedado atras
A                              D
nuestro encuentro a pintado el aire
A                         D
nada ni nadie lo pudo evitar
A                              D
somos dos heroes que cruzan los mares

            CORO_:
    A                    D          A           D
Te miro y lo vuelvo a intentar por mi tu estas ahi.
    A                    D          A           D
Te miro y lo vuelvo a intentar por mi tu estas ahi.


Bm            E              A                    D
si tu estas ahi y vivir junto a ti es vivir otra vez
   Bm                  E              A
mirar que no conquistare solo el horizonte
A                       F#m       D
caminar junto a ti es volar otra vez
  Bm                    E           D                    A
saber que ha valido la pena vivir por ti   D--0-2s4--0-0p2p0-2-

A                 D      A               D
y lo vuelvo a intentar
              B --10-12-10-------------------------------------
              G -----------9s7-4-------------------------------
              D -----------------4-4s7-2-2s4-------------------

                       A                   D
                          y lo vuelvo a intentar
e ----------------------9-7p9---9-9-9-9-10-12-17-15p17---------
B ----------10-10s12-12----------------------------------------
G --9-9-9-9----------------------------------------------------

A - D

      A                             D
e ---------7s9-------------------------------------------------
B ---10s12-------- y lo vuelvo a intentar ---------------------
G -9-----------------------------------------------------------

      A                        D
e ---------7s9--7s9-7s9-9-7-5----------------------------------
B ---10s12--------------------5s7------------------------------
G -9-----------------------------------------------------------

      A                          D
                y lo vuelvo a intentar
e ---------7s9--7s9-7s9-9-10-12--12s17-------------------------
B ---10s12-----------------------------------------------------
G -9-----------------------------------------------------------

A                               D
en el silencio de esta noche tibia
A                           D
no puedo dejar de mirar tus ojos
A                          D
acercame a tu oido y murmurar
A                                D    A
que estaremos juntos a pesar de todo.

Eso es todo DIOS los bendiga y adelante alabando a DIOS
por medio de la música, Saludos a ¡GUATEMALA!
Suggest correction
Give kudos to tab author, rate the tab!
1 2 3 4 5
comments
print report bad tab
guest
You may want to rate the tab now too:
select rating
Wanna post a correction for this tab? Suggest correction