Oops, an error
Loading. Please wait.

¿dónde Estabas Tu? Bass Tab

16 views 3 this week
no commentswrite comment
1 2 3 4 5
3 more votes to show rating
add to favorites
launch autoscroll
font size
0
reset
guitar tuner
×
Best way to learn
"¿Dónde Estabas Tu?"
Autoscroll
slow
fast
+/-
esc
set tempo
stop
?s? = slide (deslizar)
:Intro:(Guitarra)
:Intro:(x2)

G]:-------------:-------------:-----------:----------:
D]:----------7-5:5---5-7-5----:-----------:----------:
A]:5-5---5-8----:--8-------8-5:5---5------:--------3-:
E]:----8--------:-------------:--8---8-5-8:5-8-5-8---:
B]:-------------:-------------:-----------:----------:

:Estrofa:

¿Dónde estabas...?

G]:---------------:---------------:---------------:---------------:
D]:---------------:---------------:---------------:---------------:
A]:---------------:---------------:---------------:---------------:
E]:---------------:5-5-5-5-5-5-5-5:---------------:5-5-5-5-5-5-5-5:
B]:3-3-3-3-3-3-3-3:---------------:3-3-3-3-3-3-3-3:---------------:

Q sostienen su firmeza.

G]:---------------:---------------:
D]:---------------:---------------:
A]:---------------:---------------:
E]:---------------:5-5-5-5-5-5-5-5:
B]:3-3-3-3-3-3-3-3:---------------:

¿Cuál es el camino...?

G]:---------------:---------------:---------------:---------------:
D]:---------------:---------------:---------------:---------------:
A]:---------------:---------------:---------------:---------------:
E]:---------------:5-5-5-5-5-5-5-5:---------------:5-5-5-5-5-5-5-5:
B]:3-3-3-3-3-3-3-3:---------------:3-3-3-3-3-3-3-3:---------------:

Aves en su vuelo.

G]:---------------:---------------:
D]:---------------:---------------:
A]:---------------:---------------:
E]:---------------:5-5-5-5-5-5-5-5:
B]:3-3-3-3-3-3-3-3:---------------:

:Pre?Coro:

Hoy mi existencia...

G]:-------------:-----------:-----------:----------:
D]:-------------:-----------:-----------:----------:
A]:-----------3-:-------3-5-:-5-5-5-5-5-:--3-------:
E]:-1-1-1-1-3---:5-3?-6-----:-----------:5----5?3-1:
B]:-------------:-----------:-----------:----------:

Aun tu sigues...

G]:-------------:-----------:-----------:----------:
D]:-------------:-----------:-----------:----------:
A]:-----------3-:-------3-5-:-5-5-5-5-5-:--3-------:
E]:-1-1-1-1-3---:5-3?-6-----:-----------:5----5?3-1:
B]:-------------:-----------:-----------:----------:

:Coro:

Nanaranaranana... (x2)

G]:---------------:---------------:---------------:---------------:
D]:---------------:---------------:---------------:7-7-7-7-7-7-7-7:
A]:---------------:---------------:1-1-1-1-1-1-1-1:---------------:
E]:---------------:---------------:---------------:---------------:
B]:3-3-3-3-3-3-3-3:1-1-1-1-1-1-1-1:---------------:---------------:

Naaaaa!!! (x1)

G]:---------------:
D]:---------------:
A]:5--------------:
E]:---------------:
B]:---------------:

:Estrofa:
:Pre-Coro:
:Coro:
:Solo de Guitarra:

G]:-------------:-------------:-------------:-------------:
D]:-------------:-------------:-------------:-------------:
A]:-------------:-------------:-------------:-------------: (x3)
E]:-------------:-------------:-------------:-------------:
B]:1-3---1-3-1-3:1-3---1-3-1-3:1-3---1-3-1-3:1-3---1-3-1-3:

G]:------------:------------:------------:----------------:
D]:------------:------------:------------:-----7-7-7-7-7-7:
A]:-----5-s-7-5:-----3-s-5-3:1-1?-1-s-3-1:----------------: (x2)
E]:------------:------------:------------:5-5-------------:
B]:3-3---------:1-1---------:------------:----------------:

G]:------------:------------:-----------------:-------:
D]:------------:------------:-----------------:-------:
A]:5---5--3---3:1---1-------:3--------3------3:5-5-5-5:
E]:--5------3--:--1----5---5:--6-5-6----6-5-6-:-------:
B]:------------:---------5--:-----------------:-------:

:Coro:
:Final:(Intro de Guitarra)


Donde estabas antes que se formara el mundo????
humillemonos ante la poderosa mano de Dios
Saludos a todos mis amigos de la iglesia de Villa Maria del
MMM

Good Bless You!!!!
Suggest correction
Give kudos to tab author, rate the tab!
1 2 3 4 5
comments
print report bad tab
guest
You may want to rate the tab now too:
select rating
Wanna post a correction for this tab? Suggest correction